Pod - Wildfire Chords & Tabs

 

Wildfire Chords & Tabs

Pod Chords & Tabs

Version: 1 Type: Bass Tab 0 ratings
1 star 2 stars 3 stars 4 stars 5 stars
comments

Wildfire Bass Tab

Band- POD
Song- Wildfire





Tuned to Drop C (C-G-C-F from low to high)


Listen to the song for timing and accents etc.


Fig. 1
F|------------------------------------|
C|------------------------------------|
G|-------------------------------6-3--|
C|-9-9-9-5-5-5-0~--8-8-8-5-1~-x-----x-|

F|------------------------------------|
C|------------------------------------|
G|------------------------------------|
C|-9-9-9-5-5-5-0~--8-8-8-5-1~-x-1-----|
[ Tab from: http://www.guitartabs.cc/tabs/p/pod/wildfire_btab.html ]
F|------------------------------------|
C|------------------------------------|
G|------------------------------------|
C|-9-9-9-9-9-9-12--8-8-8-8-8-8-13-----|


F|--------------------------------------------------|
C|--------------------------------------------------|
G|-9-9-9--9~-----------/12-12-12--12~-12-12-12--12~-|
C|-----------5-5-5--5~------------------------------|

F|----------------------------------------------------------------------------------|
C|----------------------------------------------------------------------------------|
G|-9-9-9-9-9-9-9-9-----------------/12-12-12-12-12-12-12-12-12-12-12-12-12-12-12-12-|
C|-----------------5-5-5-5-5-5-5-5--------------------------------------------------|



ENJOY!!
Comments