Pod - Tribal Chords & Tabs

 

Tribal Chords & Tabs

Pod Chords & Tabs

Version: 1 Type: Bass Tab 0 ratings
1 star 2 stars 3 stars 4 stars 5 stars
comments

Tribal Bass Tab

Band- Pod
Song- Tribal

Tuning: DADG

Intro
1st & 3rd
G---------------|------------------------------------------------------------------|
D---------------|------------------------------------------------------------------|
A---------------|---------------------------------5-5-5-5-5-5-5-5------------------|
D-5---0---5---0-|-2-2-2-2-2-2-2-2-2-2-2-2-3-3-0-0-----------------5-5-5-5-5-5-5-5--|
             2nd & 4th
G---------------------|
D---------------------|
A---------------------|
D---5---0---5---0-----|
[ Tab from: http://www.guitartabs.cc/tabs/p/pod/tribal_btab.html ]
Verse            1st time only
G-------------------------|----------------------------------------| * play 2h0 last
D-------------------------|----------------------------------------|   time instead
A--0---3---(3)---2---(2)--|---0--3~~~(3)-----0-3---------0-3--2h3*-|      of 2h3
D---2---------------------|-2-------------2---------2-2------------|

Chorus (same as intro except for the first measure)


Breakdown
G--------------------------------|
D--------------------------------|
A--------------------------------|
D---2-0-2---3---5-5-5-0-0-0-0----|

Interlude
G---------------------------|
D---------------------------|
A---------------------------|
D---2-----3-----5-----0-----|

The end is just the same as the first measure of the intro once and then fade away on guitar.

Little jamming thing at the end
G------------------------|
D------------------------|
A---5--------------5-----|
D-----3-2-3-2-3-2----5---|
Comments