Pod - Thinking About Forever Chords & Tabs

 

Thinking About Forever Chords & Tabs

Pod Chords & Tabs

Version: 4 Type: Tab 0 ratings
1 star 2 stars 3 stars 4 stars 5 stars
comments

Thinking About Forever Tab

   
P.O.D,thinking about forever.
 Tabbed by James howes, james_bigair@hotmail.com.
  
Band-P.O.D

Song-thinking about forever

Tabbed by- James howes(James_bigair@hotmail.com) 

tuning- EADGBE


Hey guys... this is a really cool song off of PODs new album \'satellite\'
the song is actually in dropped c,(just listen to the bass slide)
but the gutar part can be played in regular tuning. (it wont sound quite
the same without a bass guitar)

Intro(clean) strum this part,listen to the song for timing.
play this 2 times, but the second time ends with a bass slide
E----------|-----------|---------|------------------------
B----3-----|----3------|----1----|-------6/8/1O/12/13-----
G----2-----|----2------|----2----|------------------------
D----2-----|----2------|----3----|------------------------
A---o------|----o------|----o----|------------------------
E----------|---3-------|---1-----|------------------------

(\'time goes by...\' )
verse 1 (clean)(play two times) pluck strings, but let them ring together
E------------------------------------------
B------------------------------------------
G------2-O------O--------------------------
D----2---------------3p2pO-----------------
A--O----------O--------------3p1pO---------
E------------------------------------------

E------------------------------------------
B------------------------------------------
G------------------------------------------
D------3-------3---------------------------
A----3-------3-----------------------------
E--1-------1-------------------------------

E------------------------------------------
B------------------------------------------
G-------2--O----O--------------------------
D-----2-------------3p2po------------------
A---O---------O-------------3p1po----------
E------------------------------------------

E------------------------------------------
B------------------------------------------
G---------O--------------------------------
D------3-----------------------------------
A----3-------------------------------------
E--1---------------------------------------
[ Tab from: http://www.guitartabs.cc/tabs/p/pod/thinking_about_forever_tab_ver_4.html ]
CHORUS (clean)  stuming, listen to song for timing.
play this 2 times, but end the second time with a bass slide

E--------|--------|--------|----------------------
B----3---|---3----|---1----|-------6/8/1O/12/13---
G----2---|---2----|---2----|----------------------
D----2---|---2----|---3----|----------------------
A----o---|---o----|---o----|----------------------
E--------|---3----|---1----|----------------------

(\'now i know what it means...\')
verse 2
the same as verse one

CHORUS
(same as before)

instead of the bass slide, it goes to the solo.
SOLO
this is a really cool solo.These are the right notes, but you have 
to listen carfully to the cd for the timing, otherwise you wont get it 
at all.

E----------------------------------------------------------
B------------------------5-3---3-5-5-6-6-6-8v-6p5-6--------
G------------------2-4-5-----5-----------------------------
D---2--3v---2h3h5------------------------------------------
A----------------------------------------------------------
E----------------------------------------------------------

E-----------------------------------------------------------
B---5v---3-----3--------------------------------------------
G-----------5-----5--4-5-4-5-5/7-5-4-7-5-4--4h5-5/7---------
D-----------------------------------------------------------
A-----------------------------------------------------------
E-----------------------------------------------------------

E------------------------------------------------------------
B-5-5-6-5-6-5v----------------5v-3---------------------------
G----------------------2-4-5-------5-4-2-4-4b5-4v-2-4-4b5-4v-
D---------------2-3-5----------------------------------------
A------------------------------------------------------------
E------------------------------------------------------------

CHORUS
Just listen to the cd for how the last parts of the chorus goes,
its not hard

Key

h= hammer on
p= pull off
v= vibrato
b= bend

i hope this all makes sense to you, if you have any questions or comments
you can e-mail me at james_bigair@hotmail.com
have fun playing!
 
:: Ultimate Guitar Archive :: 
http://www.ultimate-guitar.com 



Comments