Pod - Thinking About Forever Chords & Tabs

 

Thinking About Forever Chords & Tabs

Pod Chords & Tabs

Version: 2 Type: Tab 0 ratings
1 star 2 stars 3 stars 4 stars 5 stars
comments

Thinking About Forever Tab

here's the intro part to "thinking about forever." this is also the 
part that is played in the chorus. i feel really guilty because i have 
no idea how the verses go! still, there's a tab on this website that
gives the solo. for this intro, it'd sound right if two guitarists play
each part. below are the parts for each guitar. standard tuning. 

s= slide to next note
b= bend to next note

GUITAR
-0---0---0-0---0---0-0-0-0-0---0---0-0---0---0-0-0-0-1---1---1---1---1-
-0---0---0-0---0---0-0-0-0-0---0---0-0---0---0-0-0-0-1---1---1---1---1-
-2---2---2-2---2---2-2-2-2-2---2---2-2---2---2-2-2-2-2---2---2---2---2-
-2---2---2-2---2---2-2-2-2-2---2---2-2---2---2-2-2-2-3---3---3---3---3-
-0---0---0-0---0---0-0-0-0-0---0---0-0---0---0-0-0-0-------------------
-0---0---0-0---0---0-0-0-0-3---3---3-3---3---3-3-3-3-------------------

[ Tab from: http://www.guitartabs.cc/tabs/p/pod/thinking_about_forever_tab_ver_2.html ]
-1-s-3-3-3-s-5-5-5-s-7-7-7-s-8-8-8  play the same thing again until the
-1-s-1-1-1-----------0-0-0---0-0-0  first f-chord. you stop playing,
-2-s-2-2-2------------------------  then play an f note, then an open e
-3-s-3-3-3------------------------  note
----------------------------------
----------------------------------

SECOND GUITAR (don't play until the second time)
--------------------------------------1----0---------------------------
-----------------------------------------------------------------------
-----------------------------------------------------------------------
---2-----------2-----------2----------3----2---------------------------
-0---2-2b3b2-----2-2b3b2-----2-2b3b2-----------------------------------
-------------3-----------1---------------------------------------------

if i screwed up, or you want tabs, let me know at krazystuff012@aol.com
Comments