Pod - Thinking About Forever Chords & Tabs

 

Thinking About Forever Chords & Tabs

Pod Chords & Tabs

Version: 1 Type: Tab 0 ratings
1 star 2 stars 3 stars 4 stars 5 stars
comments

Thinking About Forever Tab

   
h= hammer on
p= pull off
v= vibrato
b= bend
/=slide down

Intro & Chorus(x2)
E----------|-----------|---------|------------------------
B----3-----|----3------|----1----|--6/8-8/1O-10/12-12/13--
G----2-----|----2------|----2----|------------------------
D----2-----|----2------|----3----|------------------------
A----0-----|----0------|----0----|------------------------
E----------|----3------|----1----|------------------------
 "strum a few times each pattern"

verse(clean)x2
E------------------------------------------
B------------------------------------------
G------2-O------O--------------------------
D----2---------------3p2pO-----------------
A--O----------O--------------3p1pO---------
E------------------------------------------

E------------------------------------------
B------------------------------------------
G------------------------------------------
D------3-------3---------------------------
A----3-------3-----------------------------
E--1-------1-------------------------------

E------------------------------------------
B------------------------------------------
G-------2--O----O--------------------------
D-----2-------------3p2p0------------------
A---O---------O-------------3p1p0----------
E------------------------------------------
[ Tab from: http://www.guitartabs.cc/tabs/p/pod/thinking_about_forever_tab.html ]
E------------------------------------------
B------------------------------------------
G---------O--------------------------------
D------3-----------------------------------
A----3-------------------------------------
E--1---------------------------------------

CHORUS

VERSE

CHORUS

SOLO
E----------------------------------------------------------
B--------------------------5-3---3-5-5-6-6-6-8v-6p5-6------
G-------------------2-4-5------5---------------------------
D---2--3v---2h3h5------------------------------------------
A----------------------------------------------------------
E----------------------------------------------------------

E-----------------------------------------------------------
B---5v---3-----3--------------------------------------------
G-----------5-----5--4-5-4-5-5/7-5-4-7-5-4--4h5-5/7---------
D-----------------------------------------------------------
A-----------------------------------------------------------
E-----------------------------------------------------------

E------------------------------------------------------------
B-5-5-6-5-6-5v----------------5v-3---------------------------
G----------------------2-4-5--------5-4-2-4-4b5-4v-2-4-4b5-4v
D---------------2-3-5----------------------------------------
A------------------------------------------------------------
E------------------------------------------------------------

Back to CHORUS
Comments