Pod - The Messenjah Chords & Tabs

 

The Messenjah Chords & Tabs

Pod Chords & Tabs

Version: 4 Type: Tab 0 ratings
1 star 2 stars 3 stars 4 stars 5 stars
comments

The Messenjah Tab

The Messinjah
By: P.O.D.

Intro
-----------------------------------------------------------------------
-----------------------------------------------------------------------
-----------------------------------------------------------------------
11-11-11-11-11-11-11\7-7-7-7-7-7\11-11-11-11-11-11\-14-14-14-14--------
9--9--9--9--9--9--9-\5-5-5-5-5-5\9--9--9--9--9--9-\-12-12-12-12--------
-----------------------------------------------------------------------

Chorus
-----------------------------------------------------------------------
-----------------------------------------------------------------------
-----------------------------------------------------------------------
0-2-3-0-22-22-22-22-2222-55-55-55-55-5555-00-00-00-00-0000-00-00-00-00-
0-2-3-0-22-22-22-22-2222-55-55-55-55-5555-00-00-00-00-0000-00-00-00-00-x2
0-2-3-0-22-22-22-22-2222-55-55-55-55-5555-00-00-00-00-0000-00-00-00-00-

Verse
12-13----12------------------------------------------------------------
------13----12---------------------------------------------------------
-----------------------------------------------------------------------
-----------------------------------------------------------------------
-----------------------------------------------------------------------
-----------------------------------------------------------------------
[ Tab from: http://www.guitartabs.cc/tabs/p/pod/the_messenjah_tab_ver_4.html ]
Pre-Chorus
------------------------------------------------------------------------
------------------------------------------------------------------------
------------------------------------------------------------------------
00-0-5320-22-0-5320-00-0-5320-22-0-5320-00-0-5320-22-0-5320-00-0-5320-00xxxxxxx
00--------22--------00--------22--------00--------22--------00--------00xxxxxxx
00--------22--------00--------22--------00--------22--------00--------00xxxxxxx

Chorus

Verse

Pre-Chorus

Chorus

Post-Chorus
-----------------------------------------------------------------------
-----------------------------------------------------------------------
4-0--0-4-0--0----------------------------------------------------------
x-0--0-x-0--0-24202----------------------------------------------------
2-0--0-2-0--0----------------------------------------------------------
----------------------------------------------------------------------- 

Intro

Chorus

Chorus

Post-Chorus

Pre-Chorus

Outro
-----------------------------------------------------------------------
-----------------------------------------------------------------------
-----------------------------------------------------------------------
04202-2---------------------------2------------------------------------
------2-A-Ton Of Times------------2------------------------------------
------2---------------------------2------------------------------------ 

My E-Mail Is bunjeedog3@zoomtown.com Ny complements or complaints are welcome
Ben Furtwengler
Comments