Pod - Space Chords & Tabs

 

Space Chords & Tabs

Pod Chords & Tabs

Version: 1 Type: Tab 0 ratings
1 star 2 stars 3 stars 4 stars 5 stars
comments

Space Tab

Band- Pod
Song- Space

Key:

 H = hammer on
 p = pull off
 ~ = let ring

 Verse 1

E|------------------------------------------------------------------------|
B|------------------------------------------------------------------------|
G|---------------------------------------------5-5-5-5-5-5----------------|
D|--0h2--0h2--2---0---0h2--0h2--2---0----------5-5-5-5-5-5----5-5-5-5--3--| x4
A|--0h2--0h2--2---0---0h2--0h2--2---0----------3-3-3-3-3-3----5-5-5-5--3--|
D|--0h2--0h2--2---0---0h2--0h2--2---0-------------------------5-5-5-5--3--|


 Chorus
[ Tab from: http://www.guitartabs.cc/tabs/p/pod/space_tab.html ]
E|------------------------------------|
B|--0-2~------------------------------|
G|--2-2~-----5--5---------------------|
D|--2-2~-----5--5----5--3-2-----------| x4
A|--0-0~-----3--3-------------3-------|
D|------------------------------------|


 Bridge

E|-------------------------------------|
B|-------------------------------------|
G|-------------------------------------|
D|--0h2--0h2--2---0---0h2--0h2--2---0--| x8
A|--0h2--0h2--2---0---0h2--0h2--2---0--|
D|--0h2--0h2--2---0---0h2--0h2--2---0--|


 Verse 2

E|------------------------------|
B|------------------------------|
G|-------------------6----5~----|
D|--6-6-6-6-6-6------6----5~----| x4
A|--6-6-6-6-6-6------4----3~----|
D|--6-6-6-6-6-6-----------------|


Order:

 Verse 1 (x4)
 Chorus (x4)
 Verse 1 (x4)
 Chorus (x4)
 Bridge (x8)
 Verse2 (x4)
Comments