Pod - Southtown Chords & Tabs

 

Southtown Chords & Tabs

Pod Chords & Tabs

Version: 9 Type: Tab 0 ratings
1 star 2 stars 3 stars 4 stars 5 stars
comments

Southtown Tab

SOUTHTOWN 
P.O.D
TABBED BY CEAL

TUNNING: CGCFAD

I SHOULD BELIEVE U PPLS WILL APPRECIATE MY WASTING TIME ON SUCH AN EASY TAB, SINCE 
NONE I SAW IN UG SEEMS TO BE CORRECT. P.O.D USES CGCFAD TUNIN SO CHECK OUT MY VERSION 
OF SOUTHTOWN… KOOL SONG, BTW.




INTRO:

(ALL PALM MUTED)

D----------------------------------
A----------------------------------
F-4-4-4-4--------------------------
C-4-4-4-4---5-5-5-5-5-5-5-5-5-5-5-5
G-2-2-2-2---5-5-5-5-5-5-5-5-5-5-5-5
C-----------5-5-5-5-5-5-5-5-5-5-5-5
                                     

D----------------------------------
A----------------------------------
F-4-4-4-4--------------------------
C-4-4-4-4---2-2-2-2-2-2-2-2-2-2-2-2
G-2-2-2-2---2-2-2-2-2-2-2-2-2-2-2-2
C-----------2-2-2-2-2-2-2-2-2-2-2-2

                             (PLAY BOTH THREE TIMES)



MAIN RIFF
D--------------------
A--------------------
F-4—-----------------
C-4-5-5-5—-5—-5-5-5-5
G-2—5-5-5—-5—-5-5-5-5
C---5-5-5—-5--5-5-5-5

[ Tab from: http://www.guitartabs.cc/tabs/p/pod/southtown_tab_ver_9.html ]
D--------------------
A--------------------
F-4------------------
C-4-2-2-2—-2—-2-2-2-2
G-2-2-2-2--2—-2-2-2-2
C---2-2-2--2—-2-2-2-2


CHORUS


D---------------------------
A---------------------------
F------2-2-2-2-—-----2-2-2-2
C-5-5-----------5-5---------
G-5-5-----------5-5---------
C-5-5-----------5-5---------
  
D---------------------------
A---------------------------
F---------------------------
C-2-2-—4-4-4-4—-2-2—-4-4-4-4
G-2-2-----------2-2---------
C-2-2-----------2-2---------
                             (REPEAT MANY TIMES)



OTHER RIFF THINGY

D-------
A-------
F------(LISTEN TO SONG AND REPEAT AS MUCH AS NEEDED)
C----5-4
G-------
C-2-----



ANOTHER RIFF THINGY

D-----------------
A-----------------
F-----------------(REPEAT AS MANY TIMES AS NEEDED)
C-----------------
G---4-5---4-5---4-
C-2-----2-----2---

AND YET ANOTHER RIFF THINGY
(I’M SO GOOD AT THIS, HUH?)

D-------------
A-------------
F-------------
C-2—-4—5-2-4-5(AGAIN, REPEAT AS MUCH AS NEEDED)
G-2—-4—5-2-4-5
C-2—-4—5-2-4-5


THAT’S IT, THAT’S THE WHOLE SONG AND IT SOUNDs GOOD IN THAT TUNNING IT’S MY FIRST 
TAB, SO I DIDN’T REALLY KNOW EXACTLY WHAT I WAS DOIN, SO ANY COMMENTS ARE WELCOME… 
CYA PPLS.
Comments