Pod - Southtown Chords & Tabs

 

Southtown Chords & Tabs

Pod Chords & Tabs

Version: 7 Type: Tab 0 ratings
1 star 2 stars 3 stars 4 stars 5 stars
comments

Southtown Tab

   
===============================================================================
Song: Southtown
Artist: P.O.D.
Tuning: e,B,G,D,A,D
Tabbed by: The Same Man
Date: 02.03.2002

===============================================================================

Intro:

|------------------------------------------------------------| 
|------------------------------------------------------------| 
|------------------------------------------------------------| 
|-7-7-7-7--3-3-3-3-3-3-3-3-3-3-3-3--7-7-7-7--0-0-0-0-0-0-0-0-| 
|-7-7-7-7--3-3-3-3-3-3-3-3-3-3-3-3--7-7-7-7--0-0-0-0-0-0-0-0-| 
|-7-7-7-7--3-3-3-3-3-3-3-3-3-3-3-3--7-7-7-7--0-0-0-0-0-0-0-0-| 

Verse: Part 1

|-------------------------------------------------------| 
|-------------------------------------------------------| 
|-------------------------------------------------------| 
|-7---3-3-3--3--3-3-3-3--7-7-7--0-0-0--0--0-0-0-0-7-7-7-| 
|-7---3-3-3--3--3-3-3-3--7-7-7--0-0-0--0--0-0-0-0-7-7-7-| 
|-7---3-3-3--3--3-3-3-3--7-7-7--0-0-0--0--0-0-0-0-7-7-7-| 

Verse: Part 2
[ Tab from: http://www.guitartabs.cc/tabs/p/pod/southtown_tab_ver_7.html ]
|------------------------------------------------| 
|------------------------------------------------| 
|------------------------------------------------| 
|-3-3-3--3--3-3-3-3--7-7-7-7--0-0-0--0--0-0-0-0--| 
|-3-3-3--3--3-3-3-3--7-7-7-7--0-0-0--0--0-0-0-0--| 
|-3-3-3--3--3-3-3-3--7-7-7-7--0-0-0--0--0-0-0-0--| 

Pre-Chorus:

|----------| 
|----------| 
|----------| 
|-0--3--2--| 
|----------| 
|----------| 

Chorus:

|--------------------------------------------------| 
|--------------------------------------------------| 
|--------------------------------------------------| 
|-3-3-5-5-5-5-3-3-5-5-5-5--0-0-2-2-2-2-0-0-2-2-2-2-| 
|-3-3---------3-3----------0-0---------0-0---------| 
|-3-3---------3-3----------0-0---------0-0---------| 

Bridge: 

|---------------------------------|
|---------------------------------| 
|---------------------------------| 
|-0-0-2-2-3-3-0-0-2-2-3-3-0-0-2-2-| 
|---------------------------------| 
|---------------------------------| 

Distorted 

|--------------------| 
|--------------------| 
|--------------------| 
|-0-2-3-0-2-3-x-x--x-| 
|-0-2-3-0-2-3-x-x--x-| 
|-0-2-3-0-2-3-x-x--x-| 

Outro: 

|-------------------------------------------| 
|-------------------------------------------| 
|-------------------------------------------| 
|-3-3-3---3--3-3-3-3-5b--0-0-0---0--0-0-0-0-| 
|-3-3-3---3--3-3-3-3-----0-0-0---0--0-0-0-0-| 
|-3-3-3---3--3-3-3-3-----0-0-0---0--0-0-0-0-| 

===============================================================================
Comments