Pod - Southtown Chords & Tabs

 

Southtown Chords & Tabs

Pod Chords & Tabs

Version: 2 Type: Tab 0 ratings
1 star 2 stars 3 stars 4 stars 5 stars
comments

Southtown Tab

   
Drop-D Tuning

INTRO (clean)
e|-----------------------------------------------------------------|
B|-----------------------------------------------------------------|
G|-----------------------------------------------------------------|
D|-2-2-2-2-------------------------2-2-2-2-------------------------| play 4 times
A|-0-0-0-0-0-0-0-0-0-0-0-0-0-0-0-0-0-0-0-0-0-0-0-0-0-0-0-0-0-0-0-0-|
D|---------3-3-3-3-3-3-3-3-3-3-3-3---------0-0-0-0-0-0-0-0-0-0-0-0-|
[ Tab from: http://www.guitartabs.cc/tabs/p/pod/southtown_tab_ver_2.html ]
VERSE (distortion)
e|-------------------------------------------------------|
B|-------------------------------------------------------|
G|-------------------------------------------------------|
D|-7--3-3-3--3--3-3-3-3--7-7-7--0-0-0--0--0-0-0-0--7-7-7-| play 5 times
A|-7--3-3-3--3--3-3-3-3--7-7-7--0-0-0--0--0-0-0-0--7-7-7-|
D|-7--3-3-3--3--3-3-3-3--7-7-7--0-0-0--0--0-0-0-0--7-7-7-|

PRE-CHORUS
e|-----------|
B|-----6---5-|
G|-----------|
D|-----3---2-|
A|-----------|
D|-0---------|

CHORUS
e|--------------------------------------------------------------|
B|-------8-8-8-8---------8-8-8-8---------5-5-5-5--------5-5-5-5-|
G|--------------------------------------------------------------|
D|-3--3--5-5-5-5---3--3--5-5-5-5---0--0--2-2-2-2--0--0--2-2-2-2-|
A|-3--3------------3--3------------0--0-----------0--0----------|
D|-3--3------------3--3------------0--0-----------0--0----------|


BRIDGE               with this on top:
e|-----------------|-------------------------|
B|-----------------|-6-5--5-3--3-1--5-3--6-5-|
G|-----------------|-------------------------|  
Comments