Pod - Southtown Chords & Tabs

 

Southtown Chords & Tabs

Pod Chords & Tabs

Version: 11 Type: Tab 0 ratings
1 star 2 stars 3 stars 4 stars 5 stars
comments

Southtown Tab

Song: Southtown
Band: P.O.D.
Album: The Fundamental Elements of Southtown
Tabbed by: simpleppl@hotmail.com

-------------------
| x - mute string |
| / - bend up     |
-------------------

 Intro
E|------------------------------------------------------------------|----
B|------------------------------------------------------------------|----
G|------------------------------------------------------------------|-2--
D|-2-2-2-2-------------------------2-2-2-2---0----------------------|-2--
A|-0-0-0-0-3-3-3-3-3-3-3-3-3-3-3-3-0-0-0-0-0---0-0-0-0-0-0-0-0-0-0--|-0--
D|---------3-3-3-3-3-3-3-3-3-3-3-3---------0---0-0-0-0-0-0-0-0-0-0--|----
                                                                   4x

  Verse
E|--------------------------------------------------------
B|--------------------------------------------------------
G|--------------------2-2-2-2--------------------2-2-2-2--
D|-3-3-3--3--3-3-3-3--2-2-2-2-0-0-0--0--0-0-0-0--2-2-2-2--
A|-3-3-3--3--3-3-3-3--0-0-0-0-0-0-0--0--0-0-0-0--0-0-0-0--
D|-3-3-3--3--3-3-3-3----------0-0-0--0--0-0-0-0-----------


  Pre-Chorus
E|----------
B|----------
G|-7--10-9--
D|----------
A|----------
D|-0--------

[ Tab from: http://www.guitartabs.cc/tabs/p/pod/southtown_tab_ver_11.html ]
  Chorus
E|--------------------------------------------------
B|-----8-8-8-8-----8-8-8-8-----5-5-5-5-----5-5-5-5--
G|--------------------------------------------------
D|-3-3---------3-3---------0-0---------0-0----------
A|-3-3---------3-3---------0-0---------0-0----------
D|-3-3---------3-3---------0-0---------0-0----------


if you only have one guitar player, start playing part 2 after playing part 1 twice

  Bridge
E|------------------|----------------------
B|------------------|----------------------
G|------------------|-10-9--9-7--7-5--9-7--
D|------------------|----------------------
A|-5-7-8-5-7-8-5-7--|----------------------
D|------------------|----------------------
                   8x                     4x

E|---------------------|----------------
B|---------------------|----------------
G|---------------------|-------------2--
D|-0-2-3-0-2-3-x-x--x--|-0-2-3-0-2-3-2--
A|-0-2-3-0-2-3-x-x--x--|-0-2-3-0-2-3-0--
D|-0-2-3-0-2-3-x-x--x--|-0-2-3-0-2-3----
                      7x

  Tag
E|-----------------------------------------------
B|-----------------------------------------------
G|--------------------2-2-2-2--------------------
D|-3-3-3--3--3-3-3-3--2-2-2-2-0-0-0--0--0-0-0-0--
A|-3-3-3--3--3-3-3-3--0-0-0-0-0-0-0--0--0-0-0-0--
D|-3-3-3--3--3-3-3-3----------0-0-0--0--0-0-0-0--


  End
E|--------------------------------------------
B|---------------------7/---------------------
G|--------------------------------------------
D|-3-3-3--3--3-3-3-3-3-----0-0-0--0--0-0-0-0--
A|-3-3-3--3--3-3-3-3-3-----0-0-0--0--0-0-0-0--
D|-3-3-3--3--3-3-3-3-3-----0-0-0--0--0-0-0-0--


Intro
Verse 6x
Pre-Chorus
Chorus 4x
Verse 4x
Pre-Chorus
Chorus 4x
Bridge
Verse
Tag
Chorus 4x
End
Comments