Pod - Snuff The Punk Chords & Tabs

 

Snuff The Punk Chords & Tabs

Pod Chords & Tabs

Version: 1 Type: Tab 0 ratings
1 star 2 stars 3 stars 4 stars 5 stars
comments

Snuff The Punk Tab

(use distortion for this song)
repeat this part once
you come in after he says "what i need right now..." 
E--------------9--------7----------4-----------------------------------
B----------------------------------------------------------------------
G----------------------------------------------------------------------
D------0-0--------0-0------0-0------------------------------------------
A----------------------------------------------------------------------
E----------------------------------------------------------------------
[ Tab from: http://www.guitartabs.cc/tabs/p/pod/snuff_the_punk_tab.html ]
E----------------------------------------------------------------------
B----------------------------------------------------------------------
G----------------------------------------------------------------------
D------2/3\2-------2/3\2-------------------------------------------------
A---4---------4--------------------------------------------------------
E----------------------------------------------------------------------


(Repeat this several times)
E----------9--5----1-1-------------------------------------------------
B----------------------------------------------------------------------
G----------------------------------------------------------------------
D----------------------------------------------------------------------
A----------------------------------------------------------------------
E----------------------------------------------------------------------
This is my first tab so don't get mad if its not totally right. Thanks!!
Comments