Pod - Snuff The Punk Chords & Tabs

 

Snuff The Punk Chords & Tabs

Pod Chords & Tabs

Version: 2 Type: Bass Tab 0 ratings
1 star 2 stars 3 stars 4 stars 5 stars
comments

Snuff The Punk Bass Tab

   
Song:snuff the punk.
album:snuff the punk
artist:p.o.d.
submitted by:matt

(drop d)

riff 1
g--------------------------------------------------------
d--------------------------------------------------------
a---------------3(0)--1----------------------------------
d--0-0-3-0-0-0-------------------------------------------

riff2
[ Tab from: http://www.guitartabs.cc/tabs/p/pod/snuff_the_punk_btab_ver_2.html ]
g--------------------------------------------------------
d---------------------3----------------------------------
a---------------3(0)-------------------------------------
D--0-0-3-0-0-0-------------------------------------------

the playing order is...........1 2 1 2 1 2  1  2  1  2  1 2 1 2 1 2 1 2 1 2 
1 2 1 2 1 2 1 2 1 2 1 2 1 2 1 2 1 2 1 2 1 2etc.
duh!!!!!!!!

thats the song except for the outro which i dont know yet.

feel free to e-mail me questions comments and death threats!
blindboy@skateboard.com or skatepunkm@hotmail.com
Comments