Pod - Sleeping Awake Chords & Tabs

 

Sleeping Awake Chords & Tabs

Pod Chords & Tabs

Version: 8 Type: Tab 0 ratings
1 star 2 stars 3 stars 4 stars 5 stars
comments

Sleeping Awake Tab

Song: Sleeping Awake
Artist: P.O.D
Album: Matrix Reloded Soundtrack
Transcribed By: Mario M


Im pretty sure this tab is at least 95% correct.
I've listened to the song about a million times.

Tunning: DADGBE



Intro/Verse (Distortion)

------------------------------------------------------------------------------------|
------------------------------------------------------------------------------------|
----7-7-7-7---------7-7-7-7----------8-8-8-8----------------------------------------|
----x-x-x-x---------x-x-x-x----------x-x-x-x----------------3-3-3----1-1-1----------|
----5-5-5-5---------5-5-5-5----------6-6-6-6----------------3-3-3----1-1-1----------|
-------------0-0-0----------0-0-0-------------0-0-0---------3-3-3----1-1-1----------|

(I think you can figure out how many times this is played)


Chorus (Distortion)

-----------------------------------------------------------|
-----------------------------------------------------------|
---------------------------6--6-6-6-----3--3-3-3-----------|  X2
---0--0-0-0---3--3-3-3-----6--6-6-6-----3--3-3-3-----------|
---0--0-0-0---3--3-3-3-----4--4-4-4-----1--1-1-1-----------|
---0--0-0-0---3--3-3-3-------------------------------------|


--------------------------------------------------------------------------------------------|
--------------------------------------------------------------------------------------------|
---9-9-9-9-9-9-7-9---5-5-5-5-5-5-5-5---8-8-8-8-8-8-8-8-8-8-8---12-12-12-12-12-12-12-12-12---|X2
---x-x-x-x-x-x-x-x---x-x-x-x-x-x-x-x---x-x-x-x-x-x-x-x-x-x-x---x--x--x--x--x--x--x--x--x----|
---7-7-7-7-7-7-5-7---3-3-3-3-3-3-3-3---6-6-6-6-6-6-6-6-6-6-6---10-10-10-10-10-10-10-10-10---|
--------------------------------------------------------------------------------------------|

Bridge:
[ Tab from: http://www.guitartabs.cc/tabs/p/pod/sleeping_awake_tab_ver_8.html ]
----------------------|
----------------------|
----------------------|
--3-------------------|
--3--HOLD IT----------|
--3-------------------|



--------------|-----------------|----------------|---------------------|
--------------|-----------------|----------------|---------------------|
---------2----|-----------------|---------6------|---------1-----------|
-------0---0--|----------5------|----6------6----|-----3-----3---------| X2
-----0------0-|----3-------3----|--4---4------4--|---1---1-----1-------|
---0----------|--3----3------3--|----------------|---------------------|


SOLO:

-----------------------------------------------|
-----------------------------------------------|
---2~~~~/5~~~~-------5~~~~/1~~~~/5~~~~-3~~~~~--|X2
---------------3~~~----------------------------|
-----------------------------------------------|
-----------------------------------------------|


OUTRO:

-------------------------------------------------|
-------------------------------------------------|
---9-9-9-9-9-9-9-9-9-7-9-----5-5-5-5-5-5-5-5-----|
---x-x-x-x-x-x-x-x-x-x-x-----x-x-x-x-x-x-x-x-----|
---7-7-7-7-7-7-7-7-7-5-7-----3-3-3-3-3-3-3-3-----|
-------------------------------------------------|

---------------------------------------------------------------|
---------------------------------------------------------------|
---8-8-8-8-8-8-8-8-8-8----12-12-12-12-12-12-12-12-12-12-12-12--|
---x-x-x-x-x-x-x-x-x-x----x--x--x--x--x--x--x--x--x--x--x--x---|
---6-6-6-6-6-6-6-6-6-6----10-10-10-10-10-10-10-10-10-10-10-10--|
---------------------------------------------------------------|

Outro2:

--------------------------------------|
--------------------------------------|
--------------------------------------| X4
---0-0-0--0---3-0-3-------------------|
---0-0-0--0---3-0-3-------------------|
---0-0-0--0---3-0-3-------------------|
P.M---------|
Comments