Pod - Sleeping Awake Chords & Tabs

 

Sleeping Awake Chords & Tabs

Pod Chords & Tabs

Version: 5 Type: Tab 0 ratings
1 star 2 stars 3 stars 4 stars 5 stars
comments

Sleeping Awake Tab

   
This is my first tab. If you have any comments or corrections or 
if you can fill in the parts I did not email me. 
Dawn9271@yahoo.com Listen to the song to get the rhythm.

DROP D

E:------------------------------------------------------- |
B:------------------------------------------------------- |
G:-7-7-------7-7---------8-8--------10-10-8-12-8|
D:-7-7-------7-7---------8-8--------10-10-8-12-8|
A:-5-5-------5-5---------6-6---------8--8-6-10-6|
D:-------0-0--------0-0--------0-0--------------------|

chorus
[ Tab from: http://www.guitartabs.cc/tabs/p/pod/sleeping_awake_tab_ver_5.html ]
|--------------------------------------------------------------------|
|--------------------------------------------------------------------|
|--------------------------------------------------------------------|
|0----------------------3-------------------6-----------------8------|
|0----------------------3-------------------6-----------------8------|
|0----------------------3-------------------6-----------------8------|

I haven’t figured out the rest of the song, it’s not too hard. 
Figure it out for your self. When you do can you send it to me. 
Comments