Pod - Sleeping Awake Chords & Tabs

 

Sleeping Awake Chords & Tabs

Pod Chords & Tabs

Version: 1 Type: Bass Tab 0 ratings
1 star 2 stars 3 stars 4 stars 5 stars
comments

Sleeping Awake Bass Tab

   
-------------------------------------------------------------------------------
                            Sleeping awake - P.O.D.
-------------------------------------------------------------------------------

Artist: P.O.D.
Song: Sleeping Awake
Albulm: Matrix Reloaded
Tabbed By : Zero is Great man
Tuning: BEADG

Intro/Verse:
G|---------------------------------------------------------------------------|
D|---------------------------------------------------------------------------|
A|-5-5-5-5----5-5-5-5----5-6-6-6-6----6--------------------------------------|
E|---------------------------------------------------------------------------|
B|---------------------------------------6-6-6-6----4-4-4-4-4-4--------------|

Chorus: 
"Dreaming of Zion Away, Sleeping awake"
"Dreaming of Zion Away, Can't stop sleeping awake."
G|---------------------------------------------------------------------------|
D|---------------------------------------------------------------------------|
A|---------------------4-4-4-4--1-1-1-1--------------------------------------|
E|---------------------------------------------------------------------------|
B|-3-3-3-3--6-6-6-6----------------------------------------------------------|
[ Tab from: http://www.guitartabs.cc/tabs/p/pod/sleeping_awake_btab.html ]
Post Chorus: 
"Do you see what I see, Can you hear what I hear?
G|---------------------------------------------------------------------------|
D|---------------------------------------------------------------------------|
A|-5-5-5-5-5-5-5-5-/-8-8-8-8-8-8-8-8-\-4-4-4-4-4-4-4-4-\-1-1-1-1-1-1-1-1-----|
E|---------------------------------------------------------------------------|
B|---------------------------------------------------------------------------|

Bridge:(Guitar only) "Do you see what I see...."
"Can you hear what I hear"

(Then)"Ah-ah-Ah-ah..."
G|---------------------------------------------------------------------------|
D|---------------------------------------------------------------------------|
A|--------8-8-8-8--4-4-4-4--8-8-8--5-5-5--8-8-8--6-6-6-----------------------|
E|-6-6-6---------------------------------------------------------------------|
B|---------------------------------------------------------------------------|

Part 2: (Bridge Cont.)
G|---------------------------------------------------------------------------|
D|---------------------------------------------------------------------------|
A|--------8-8-8-8--4-4-4-4--8-8-8--6-6-6--8-8-8--5-5-5-----------------------|
E|-6-6-6---------------------------------------------------------------------|
B|---------------------------------------------------------------------------|

Outro:
"Can anybody see me?, Can any body here me?"
G|---------------------------------------------------------------------------|
D|---------------------------------------------------------------------------|
A|---------------------------------------------------------------------------|
E|---------------------------------------------------------------------------|
B|-3-3-3--4-6-4--3-3-3--4-6-4--3-3-3-4-6-4-3---------------------------------|

| /  slide up
| \  slide down
| h  hammer-on
| p  pull-off
| ~  vibrato
| +  harmonic
| x  Mute note

===============================================================================
Comments