Pod - Set Your Eyes To Zion Chords & Tabs

 

Set Your Eyes To Zion Chords & Tabs

Pod Chords & Tabs

Version: 2 Type: Tab 0 ratings
1 star 2 stars 3 stars 4 stars 5 stars
comments

Set Your Eyes To Zion Tab

   
Song: Set Your Eyes to Zion
Band: P.O.D.
Album: Fundamental Elements of Southtown
Tabbed by:  Alejandro D'Brot 
	    alexd@terra.com


p= pull-off 
h= hammer-on 
\= slide down 
b= bend to indicated note
r= release bend to original note
~= vibrato
จ= palm mute
x= muted note or chord

Tuning: Low D - DADGBe


[ intro ]

"Hear Mr. Dead Man, rejoice!"

...play this two times...

e|--------------------------|---------------|------------------| 
B|--------------------------|---------------|------------------|
G|-----7h9p7h9(x2.5)*-9b10r-|---------------|-----3h5p3h5(x2)*-|
D|---7----------------------|---0-5h7p5h7*--|---3--------------|
A|-5------------------------|---------------|-1----------------|
D|--------------------------|-5-------------|------------------|
PM.จจจ 			      จจจ             จจจ

[ *-these hammer-on's and pull-off's have an echo effect, but they sound too good if ]
[   you do them manually					 		     ]


[ verse ]

...repeat this four times... 

e|--5-(5)(5)(5)-|--8-(8)(8)(8)-|--1-(1)(1)(1)-|--3-(3)(3)(3)-| 
B|--5-(5)(5)(5)-|--6-(6)(6)(6)-|--1-(1)(1)(1)-|--3-(3)(3)(3)-|
G|--7-(7)(7)(7)-|--7-(7)(7)(7)-|--2-(2)(2)(2)-|--3-(3)(3)(3)-|
D|--7-(7)(7)(7)-|--7-(7)(7)(7)-|--3-(3)(3)(3)-|--5-(5)(5)(5)-|
A|--------------|--------------|--------------|--------------|
D|--------------|--------------|--------------|--------------|

[ ()-these are done with an echo effect, but they sound decent if you do them manually ]


[ chorus ]

...repeat this two times...
 
 "Set your eyes to Zion..."
e|------------|------------| 
B|------------|------------|
G|------------|------------|
D|-----5-8-7--|-----0-5-3--|
A|---5--------|---0--------|
D|-5----------|-0----------|
PM.จจจจจจ       จจจจจ


..then play this: 'verse' (x4)
    		  'chorus'(x4)


[ solo ]

e|-5-5-5--5-5-5-3-1-0-1-3-3--1h3p1p0-1-|-5-5b6r5b6r-5-5-5-3-1-0-1-3-3--1h3p1p0---|  
B|-------------------------------------|---------------------------------------3-|
G|-------------------------------------|-----------------------------------------|
D|-------------------------------------|-----------------------------------------|
A|-------------------------------------|-----------------------------------------|
D|-------------------------------------|-----------------------------------------|
[ Tab from: http://www.guitartabs.cc/tabs/p/pod/set_your_eyes_to_zion_tab_ver_2.html ]
e|----------------------------------------------------------------------| 
B|-6--5-6-3-5-1-3-------------------------------------------------------|
G|----------------3-5---------------------------------------------------|
D|--------------------7-8-7~--8-7~--8-7~--8-7~--5--3-2--5--3-2--2-3-----|
A|------------------------------------------------------------------3-5-|
D|----------------------------------------------------------------------|
                 

...ok, the solo has these chords played in arpeggios...

 i:      ii:     iii:
e|---5---|---8---|---5---|    Order(x4): i
B|---5---|---5---|---6---|               ii
G|---7---|---7---|---5---|	         iii
D|---7---|---7---|---7---|               iii
A|-------|-------|-------|
D|-------|-------|-------|


...then play this: 'verse' (x4)
		   'chorus'(x4)


[ outro ]
( this is really spaced out just so that the solo fits in perfectly )

..play this four times...
 
 "Ride on..."
e|-5-----5---x-5-------5h6---6p5---5\3----x---x-3-----| 
B|-6-----6---x-5-------5-----5-----5\3----x---x-3-----|
G|-5-----5---x-5-------5-----5-----5\3----x---x-3-----|
D|----------------------------------------------------|
A|----------------------------------------------------|
D|----------------------------------------------------|
                                                                           
...the outro is overlapped with a small solo...                                   
                                                                       
e|-----------------------------------------**---------| [ *-these are each separate notes, ]
B|-6-----6-----5-------5h6---6p5---5\3-3h5p33-5-6-6h8-| [   but to show the time, I put    ]
G|----------------------------------------------------| [   them close together            ]  
D|----------------------------------------------------|
A|----------------------------------------------------|
D|----------------------------------------------------|

...the fourth time the outro is played, the solo changes...
                                                            
e|----------------------------------------------------| 
B|-6----6-----5-------5h6---6p5---6~-----5~-----3~----|
G|----------------------------------------------------|
D|----------------------------------------------------|
A|----------------------------------------------------|
D|----------------------------------------------------|

...
Comments