Pod - Set Your Eyes To Zion Chords & Tabs

 

Set Your Eyes To Zion Chords & Tabs

Pod Chords & Tabs

Version: 1 Type: Tab 1 rating
1 star 2 stars 3 stars 4 stars 5 stars
comments

Set Your Eyes To Zion Tab

tab: set your eyes to zion 
by: P.O.D.
album: the fundamental elements of the southtown
Tabbed by: tribalwarrior85@hotmail.com
Drop d tuning

intro with delay
--------------------------------------
-----7h9-9b---------------------------
-5-7----------------------------------
--------------5-5h7-8h10--------------
------------8-------------------------
--------------------------------------
you could do this another way, but I think this way sounds better

verse, same delay
--5---8---1---3---------------------------
--5---6---1---1---------------------------
--7---7---2---2---------------------------
--7---0---3---3---------------------------
--------------------------------------
--------------------------------------


chorus, clean
--------------------------------------
--------------------------------------
-----0-3-2-----0-2--------------------
---0---------0----3-------------------
-0---------0--------------------------
--------------------------------------
[ Tab from: http://www.guitartabs.cc/tabs/p/pod/set_your_eyes_to_zion_tab.html ]
solo, sounds like mild distortion with 
chorus and light delay
-10-10-10--10-10-10-8---------8-8----------
----------------------10-9-10-----10-9-10--
-------------------------------------------
-------------------------------------------
-------------------------------------------
-------------------------------------------


-------------------------------------------
-10-10-10b--10-10-10-8---------8-8---------
-----------------------10-9-10-----10-9-7--
-------------------------------------------
-------------------------------------------
-------------------------------------------


--------------------------------------
--------------------------------------
-10-9-10--9-10-7-9----7---------------
-------------------10---8-10-7-8-7h8p7
--------------------------------------
--------------------------------------


--------------------------------------
--------------------------------------
--------------------------------------
-7h8p7-7h8p7-7h8p7-7-8-5------5-------
--------------------------8-7---8-7---
--------------------------------------


--------------------------------------
--------------------------------------
--------------------------------------
--------------------------------------
-7-8-3s5------------------------------
--------------------------------------
I think this way of playing the solo is a whole lot easier

The outro is the same chords and order as the intro 
from what I can tell, but a different strumming pattern
That about sums it up, any qeustions or comments, 
feel free to email me
Comments