Pod - Set It Off Chords & Tabs

 

Set It Off Chords & Tabs

Pod Chords & Tabs

Version: 5 Type: Tab 0 ratings
1 star 2 stars 3 stars 4 stars 5 stars
comments

Set It Off Tab

   
 Artist :P.O.D  
 Song :Set It Off    
 Tabbed by :Peter (andrei2@go2.pl) 
 ----------------------------------------------------------------------
 TABULATURE EXPLANATION:
 P.M..... = Palm mute 
 /        = slide up 
 \        = slide down   
 h        = hammer on 
 p        = pull off 
 ~~~~~~   = vibrato 
 X        = muffled string 
-----------------------------------------------------------------------
 
 
 intro
 D |----------------|----------------|----------------|
 A |----------------|----------------|----------------|
 F |----------------|----------------|----------------|
 C |-7-777----------|-3333-3h5-55----|-2222-2h3-3-----|
 G |-5-555----------|-3333-3h5-55----|-2222-2h3-3-----|
 C |-------0--------|-3333-3h5-55----|-2222-2h3-3-----|
                 x2

 verse                                                                      
 D |---------8-----8------|------------------------|
 A |-----6-5---6-----6----|-------6-5--5-6---5-6---|
 F |---7---------7-----7--|-----7----------7-----7-|
 C |-5--------------------|---7--------------------|
 G |----------------------|-5----------------------|
 C |----------------------|------------------------|
                        x2                        x2

 
 D |-------------------|                                                   
 A |-------------------|                                                   
 F |-------------------|                                                   
 C |---0--------0--0---|                                                   
 G |--0--0-0-0-0--0----|                                                   
 C |-0--1-3-5-7--7-----|                                                   
                     x2

chorus
 
 
 D |------------|
 A |------------|
 F |------------|
 C |----1/3-----|
 G |-5--1/3-5---|
 C |-0--1/3-0---|
              x3 then break
 
 
 D |------------|
 A |------------|
 F |------------|
 C |----1/3-----|                                                   
 G |-5--1/3-5---|
 C |-0--1/3-0---|
              x3

end of chorus
 D |---------------|
 A |---------------|
 F |---------------|
 C |----1/3--------|
 G |-5--1/3-5--7~--|
 C |-0--1/3-0------|
                 x1

verse

chrus
[ Tab from: http://www.guitartabs.cc/tabs/p/pod/set_it_off_tab_ver_5.html ]
solo
 
 
 D |-------------------------------------------------------------------
 A |----------------------------------------------------18~-17~---13~--
 F |-------------------------------------------------------------------
 C |-------------------2-3---2-3---2-3---------------------------------
 G |----5--7-8--8p7\3------3-----3-------5--7-8--8p7\3-----------------
 C |-------------------------------------------------------------------

 
 
 D |-------------------------------------------------------------
 A |-------------------------------------------------------------
 F |--------------------------------------------------999---999--
 C |-0--0-1--0-3--0-5--0-7777777--0--0-1--0-3--0-5--0-----0------
 G |-0--0-1--0-3--0-5--0-7777777--0--0-1--0-3--0-5--0-777-0-777--
 C |-0--0-1--0-3--0-5--0-7777777--0--0-1--0-3--0-5--0-----0------
P.M.    .    .    .    .             .    .    .    .     .

chorus x2

end
                                                                       
                                                                       
 D |--------------------------------------------------------------------
 A |--------------------------------------------------------------------
 F |-99999999999999999/1010101010101010101010/121212121212121212121212/-
 C |--------------------------------------------------------------------
 G |-77777777777777777/8-8-8-8-8-8-8-8-8-8-88/101010101010101010101010/-
 C |--------------------------------------------------------------------
                                                                       
                                                                       
 D |------------------------------------------------------
 A |------------------------------------------------------
 F |--/141414141414141414141414/151515151515151515151515/-
 C |------------------------------------------------------
 G |--/121212121212121212121212/131313131313131313131313/-
 C |------------------------------------------------------
                                                                       
                                                                       
 D |-----------------------------------------------------
 A |-----------------------------------------------------
 F |-/171717171717171717171717/191919191919191919191919/-
 C |-----------------------------------------------------
 G |-/151515151515151515151515/171717171717171717171717/-
 C |-----------------------------------------------------
                                                                       
                                                                       
 D |----------------------------------------------
 A |----------------------------------------------
 F |-/2121212121212121212121212121212121212121----
 C |--------------------------------------------0-
 G |-/1919191919191919191919191919191919191919--0-
 C |--------------------------------------------0-
Comments