Pod - Set It Off Chords & Tabs

 

Set It Off Chords & Tabs

Pod Chords & Tabs

Version: 3 Type: Tab 0 ratings
1 star 2 stars 3 stars 4 stars 5 stars
comments

Set It Off Tab

   
Band: P.O.D 
Song: Set it off 
Tabed By: Jeff (poo_poo_punk@hotmail.com)
                               

1=D
2=A
3=F
4=C
5=G
6=C

Once again there's a lot of fx on this song
so it might not sound right but im pretty
positive that it is.

Enjoy!


Intro riff
|-------------------------------------------------------------|
|-------------------------------------------------------------|
|--7--7-7-7-----7--7-7-7--------------------------------------|
|--7--7-7-7-----7--7-7-7--------------------------------------|
|--5--5-5-5-----5--5-5-5-----3-3-3-3-5-5-5-5-2-2-2-2-3-3-3-3--|
|-----------0------------0---3-3-3-3-5-5-5-5-2-2-2-2-3-3-3-3--|


verse riff   played with Phazer or flanger
|---------------------------------------------------|
|------------------13----------13-------------------|
|---------10--9--------10----------10---------------|
|-----12-------------------12----------12-----------|
|-10------------------------------------------------|
|---------------------------------------------------|


                      1st          2nd
|----------------|--8-------|---------------------|
|-----------6--5-|-----6----|--6--5--7--5--6------|
|--------7-------|--------7-|-----------------7---|
|-----7----------|----------|---------------------|
|--5-------------|----------|---------------------|
|----------------|----------|---------------------|


before chorus
|-------------------------------------|
|-------------------------------------|
|-------------------------------------|
|-----0-----------------0---0---------|
|---0----0--0-------------0---0-------|
|-0----3---5--5----/7-7---------------|

[ Tab from: http://www.guitartabs.cc/tabs/p/pod/set_it_off_tab_ver_3.html ]
|---------------------------------------------------|
|---------------------------------------------------|
|---------------------------------------------------|
|-0----0-3-0---0----0-3-0----0----0-3-0-------------|
|-0----0-3-0---0----0-3-0----0----0-3-0-------------|
|-0----0-3-0---0----0-3-0----0----0-3-0-------------|


Interlude
|--------------------------------------------------------------------------------------------|
|-----------------------------------------------------------------------------17b---16b------|
|----------------------------------------------------------------------------------------17--|
|-0------2---3---2h3p2--------2-3-0-2-3-0-2-3-0-----------2---3---2h3p2----------------------|
|----------------------3------------------------------------------------3--------------------|
|--------------------------------------------------------------------------------------------|


|----------------------------------------------|
|----------------------------------------------|
|------------------------------------9-9-------|<-------------different guitar/ layer plays notes on this string
|-0--3--5--5---/7-7----0--3--5--5---/7-7-------|
|-0--3--5--5---/7-7----0--3--5--5---/7-7-------|
|-0--3--5--5---/7-7----0--3--5--5---/7-7-------|


Clean guitar plays this
|----------------------------------------------------|
|----------------------------------------------------|
|----------------------------------------------------|
|----------------------------------------------------|
|-0----0-3-0---0----0-3-0----0----0-3-0---0----------|
|-0----0-3-0---0----0-3-0----0----0-3-0---0----------|

Last chorus has slight variation
|---------------------------------------------------|
|---------------------------------------------------|
|---------------------------------------------------|
|-0----0-3-0---0----0-3-0----0----0-3-0-------------|
|-0----0-3-0---0----0-3-0----0----0-3-0----------7--|
|-0----0-3-0---0----0-3-0----0----0-3-0-------------|

|---------------------------------------------------|
|---------------------------------------------------|
|---------------------------------------------------|
|-0----0-3-0---0----0-3-0----0----0-3-0-------------|
|-0----0-3-0---0----0-3-0----0----0-3-0-7-----------|
|-0----0-3-0---0----0-3-0----0----0-3-0-------------|

ENJOI
Comments