Pod - Selah Chords & Tabs

 

Selah Chords & Tabs

Pod Chords & Tabs

Version: 1 Type: Tab 0 ratings
1 star 2 stars 3 stars 4 stars 5 stars
comments

Selah Tab

Tabbed by: Jake Overdorff        E-mail: heavyrock17@hotmail.com
Tuning: Standard    Artist: P.O.D.                 Song:Selah
[ Tab from: http://www.guitartabs.cc/tabs/p/pod/selah_tab.html ]
E------------------/-------------------------------------------
B------------------/-------------------------------------------
G--4-2-0-------2-0-/--4-2-2-2-2--2-0---------------------------
D---------2--------/----2-2-2-2-------4-4-4-4--4-2-0--0-0-0-0-2
A------------------/------------------4-4-4-4------------------
E------------------/-------------------------------------------
( / is being used^to divide.)                                                
E-----repeat 3x then--------------------(drums)---------------
B-----repeat 3x then--------------------(drums)---------------
G-----repeat 3x then---4-4-4-4-4-4-4----(drums)---------------
D--4--repeat 3x then---4-4-4-4-4-4-4----(drums)---------------
A-----repeat 3x then--------------------(drums)---2-2-2-2--3--
E-----repeat 3x then--------------------(drums)---2-2-2-2--3--
            Verse: --------->  Kick down the teeth^^^^^^^...     
E-------------------------------------------------------------
B-------------------------------------------------------------
G-------------------------------------------------------------
D-------------------------------------------------------------
A---2-2-2-2---12-12-12-12---2-2-2-2--3---2-2-2-2--3-3-3-3-----
E---2-2-2-2-----------------2-2-2-2--3---2-2-2-2--3-3-3-3-----
                            Cowards be mock'n me^^^^^^^^^
E-------------------------------------------------------------
B-------------------------------------------------------------
G-------------------------------------------------------------
D-------------------------------------------------------------
A--2-2-2-2--3---2-2-2-2--12-12-12-12--2-2-2-2--3---2-2-2-2--3-
E--2-2-2-2--3---2-2-2-2---------------2-2-2-2--3---2-2-2-2--3-
There's no fear of Death^^^^^^^^
E-------------------------------------------------------------
B-------------------------------------------------------------
G-------------------------------------------------------------
D-------------------------------------------------------------
A--3-3-3---2---5--5-5--2222-4444-6666-7777-9999--2---5--5-5---
E--3-3-3---2---5--5-5----------------------------2---5--5-5---
Step up punks get rushed^^^^^^^^^^^^^^  <------- Chorus 
E-------------------------------------------------------------
B--0--5--0-5-5-5-5-6-5-0--------------------------------------
G-------------------------------------------------------------
D-------------------------------------------------------------
A--------------------------------2---5--5-5--2222-4444-6666---
E--------------------------------2---5--5-5-------------------
  ^^^Braced in your Word, I say
E-------------------------------------------------------------
B--------------------------0--5--0---5-5-5-6-5-0--------------
G-------------------------------------------------------------
D-------------------------------------------------------------
A-7777-9999--2---5--5-5---------------------------------------
E------------2---5--5-5---------------------------------------
                     Sheltered by^^^^^^^^^^^^^^

REPEAT VERSE THEN PLAY THE CHORUS. THEN..........
BRIDGE:
E-----------------------repeat 7x------------------repeat 6x--
B-----------------------repeat 7x------------------repeat 6x--
G-----------------------repeat 7x------------------repeat 6x--
D-----------------------repeat 7x------------------repeat 6x--
A--2--4--5--5--4--2--0--repeat 7x--2--4--5--5-4-5--repeat 6x--
E-----------------------repeat 7x------------------repeat 6x--Selah^^^^^^^
E-------------------repeat 6x---------------------------------
B-------------------repeat 6x---------------------------------
G-------------------repeat 6x---------------------------------
D-------------------repeat 6x---------------------------------
A--2-4-5--5-4-5-----repeat 6x---------------------------------
E--2-4-5--5-4-5-----repeat 6x---------------------------------
Identify your real master^...   Then repeat the last 2 parts of the  bridge.
After you repeat the bridge; then play the chorus. Then.....
Ending:
E-------------------------(drum)------------------------------
B-------------------------(drum)------------------------------
G-------------------------(drum)------------------------------
D-------------------------(drum)------------------------------
A--2-2---2-2---2-2---2-2--(drum)--2-2---2-2---2-2---2-2-------
E--2-2---2-2---2-2---2-2--(drum)--2-2---2-2---2-2---2-2-------

E-(drum)-------------------------(drum)-----------------------
B-(drum)-------------------------(drum)-----------------------
G-(drum)-------------------------(drum)-----------------------
D-(drum)-------------------------(drum)-----------------------
A-(drum)--2-2---2-2---2-2---2-2--(drum)--2-2---2-2---2-2---2--
E-(drum)--2-2---2-2---2-2---2-2--(drum)--2-2---2-2---2-2---2--

E-----(no drum)-------------------------(drum)----------------
B-----(no drum)-------------------------(drum)----------------
G-----(no drum)-------------------------(drum)----------------
D-----(no drum)-------------------------(drum)----------------
A--2--(no drum)--2-2---2-2---2-2---2-2--(drum)--2-2---2-2-----
E--2--(no drum)--2-2---2-2---2-2---2-2--(drum)--2-2---2-2-----

E------------------------(drum)-------------------------------
B------------------------(drum)-------------------------------
G------------------------(drum)-------------------------------
D------------------------(drum)-------------------------------
A-2-2---2-2---2-2---2-2--(drum)--2-2---2-2---2-2---2-2--------
E-2-2---2-2---2-2---2-2--(drum)--2-2---2-2---2-2---2-2--------

E--(drum)-----------------------------------------------------
B--(drum)-----------------------------------------------------
G--(drum)-----------------------------------------------------
D--(drum)-----------------------------------------------------
A--(drum)--2-2---2-2---2-2---2-2------------------------------
E--(drum)--2-2---2-2---2-2---2-2------------------------------
If you have any questions or comments or anything else, you can email me.
Comments