Pod - School Of Hard Knocks Chords & Tabs

 

School Of Hard Knocks Chords & Tabs

Pod Chords & Tabs

Version: 5 Type: Tab 0 ratings
1 star 2 stars 3 stars 4 stars 5 stars
comments

School Of Hard Knocks Tab

Song: School of Hard Knocks
Band: P.O.D.
Album: 'Little Nicky' Sound Track
Tabbed by:  Alejandro D'Brot 
	    alexd@terra.com


b= bend to indicated note
r= release to original note or 
.= natural harmonic
x= muted note or chord


Tuning: Standard D - DGCFAd

NOTE: Although this tab is very similar to szkieletor's live version, it is completely my work.
It's in the same format as my last tab, just with the right tunning. I think both of us based 
it on a live P.O.D. video and got a similar result, but there were a number of differences, so 
I'm posting it anyway :p. 
Anyway... leave out the first part of the song like P.O.D. does live.


[ intro ] 

(little distortion w/ up and down strokes)
d|-------0--------0-|-----------------|---------------------------| 
A|-------0--------0-|-----------------|---------------------------|
F|-------x--------x-|-5-5-5-5---------|----------7-7-7-7----------|
C|-9-9-9-9--9-9-9-9-|-5-5-5-5-5-5-5-5-|-5-5-5-5--7-7-7-7--7-7-7-7-|
G|-7-7-7-7--7-7-7-7-|-3-3-3-3-5-5-5-5-|-5-5-5-5--5-5-5-5--7-7-7-7-|
D|-0-0-0----0-0-0---|---------3-3-3-3-|-3-3-3-3-----------5-5-5-5-|

d|-----------------------|-----------------|
A|-----------------------|---------12------|
F|-----------------------|---------12b16r--|
C|-7-7-7-7--7-7--7-7-7-7-|-7-7-7-7---------|
G|-7-7-7-7--7-7--7-7-7-7-|-7-7-7-7---------|
D|-5-5-5-5--5-5--5-5-5-5-|-5-5-5-5---------|

[ turn on distortion at the bend ]



[ chorus ]
(distortion w/ up and down strokes)

..play two times:
d|------------------|-----------------|---------------------------| 
A|------------------|-----------------|---------------------------|
F|------------------|-5-5-5-5---------|----------7-7-7-7----------|
C|-2-2-2-2--2-2-2-2-|-5-5-5-5-5-5-5-5-|-5-5-5-5--7-7-7-7--7-7-7-7-|
G|-2-2-2-2--2-2-2-2-|-3-3-3-3-5-5-5-5-|-5-5-5-5--5-5-5-5--7-7-7-7-|
D|-0-0-0-0--0-0-0-0-|---------3-3-3-3-|-3-3-3-3-----------5-5-5-5-|

d|-----------------------|---------|          
A|-----------------------|---------|        
F|-----------------------|---------|   
C|-7-7-7-7--5-5--7-7-7-7-|-7-7-7-7-|  
G|-7-7-7-7--7-7--7-7-7-7-|-7-7-7-7-|    
D|-5-5-5-5--5-5--5-5-5-5-|-5-5-5-5-|	     
			     ^		      
...the second time the chorus is played, play this at the ^ symbol:
d|--------------|
A|--------------|
F|--------------|
C|--------------|
G|-7.7.7.7.7.7.-|
D|-7.7.7.7.7.7.-|
PM.จจจจจจจจจจจจ  < palm mute close to bridge


[ verse ]
[ Tab from: http://www.guitartabs.cc/tabs/p/pod/school_of_hard_knocks_tab_ver_5.html ]
..play this four times:
d|-----------------|--------------------|----------------3---------------0-------| 
A|-----------------|--------------------|-------------------0----------3---3-----|
F|-------------9---|-7-9-11-11b12r-9h11-|-------------5--------5-----5-------5---|
C|--------9----9---|--------------------|--------5-----------------5-----------5-|
G|---7-------------|--------------------|---3--------------------0---------------|
D|-----------------|--------------------|----------------------------------------|
	             				        	            	
...the verse is overlapped with this (it varies in the second verse):            
d|-----------------|--------------------|-----------------------------------------|
A|-----------------|--------------------|-----------------------------------------|
F|-1211h12p119-7-9-|-7-9-11-11b12r-9h11-|-1211h12p119-7-9-------------------------|
C|-----------------|--------------------|-----------------------------------------|
G|-----------------|--------------------|-----------------------------------------|
D|-----------------|--------------------|-----------------------------------------|

..at the end of the fourth time play this:
d|---------7.----------12.--| 
A|---------7.----------12.--|
F|---------7.----------12.--|
C|-2-2-2-2-7.--2-2-2-2-12.--|
G|-2-2-2-2-----2-2-2-2------|
D|-0-0-0-0-----0-0-0-0------|


..then play : 'chorus'(x2)
    	      'verse'(x4)


[ bridge ]

i:
d|--------------------------------------------------|    
A|--------------------------------------------------|
F|-12-12-12-11-11-11-12-12-12-11-11-11-14-14-14-14--|
C|--x--x--x--x--x--x--x--x--x--x--x--x--x--x--x--x--|
G|-10-10-10--9--9--9-10-10-10--9--9--9-12-12-12-12--|
D|--------------------------------------------------|
					  
ii:					   
d|----------------------------------------|
A|----------------------------------------|
F|-12-12-12-11-11-11--9-9-9-9-9-9-9-9-9---|
C|--x--x--x--x--x--x--x-x-x-x-x-x-x-x-x---|
G|-10-10-10--9--9--9--7-7-7-7-7-7-7-7-7---|
D|----------------------------------------|

Order(x2): i (x3)
	   ii 


[ break ]

...play two times
d|--------------------------|
A|--------------------------|
F|--------------------------|
C|----------/2--------2-----|
G|-2-----------0--------0---|
D|-0-------------0--3-----0-|
   ^ let ring                 


..then play: 'intro'
	     'chorus' (x2)
	     'bridge' (x2)


...end with this:
d|-----------------------| 
A|-----------------------|
F|-----------------------|
C|---------------2-------|
G|-2--2--2--2----2-------|
D|-0--0--0--0----0-------|
            
...
Comments