Pod - School Of Hard Knocks Chords & Tabs

 

School Of Hard Knocks Chords & Tabs

Pod Chords & Tabs

Version: 2 Type: Bass Tab 0 ratings
1 star 2 stars 3 stars 4 stars 5 stars
comments

School Of Hard Knocks Bass Tab

   
 Artist: P.O.D
Title: School Of Hard Knocks
Album: Little Nicky Soundtrack
Tabbed By: Andrew Catron (AmericanAndrew@juno.com)
           http://InHisService.cjb.net


b = bend

¤Chorus¤ 
G:|---------------------------------|
D:|---------------------------------| 
A:|---------------------------------|
D:|0-0--0-0-7--3-3--3-3--10-5-5--5-5|

¤Verse¤
G:|---------------------------|
D:|---------------------------|
A:|------1-1-0---1-1-1--------|
D:|0-0-0----------------5-5-5-|

G:|-----------------------------------------|
D:|--------3--------------------------------|
A:|------1---0-----0--1-1-1----1------------|
D:|0-0-0--------3-5---------1h3---5-5-5---5b|

G:|------|
D:|------|
A:|------|
D:|0-0--0|

¤Chorus¤ 
G:|---------------------------------|
D:|---------------------------------| 
A:|---------------------------------|
D:|0-0--0-0-7--3-3--3-3--10-5-5--5-5|
[ Tab from: http://www.guitartabs.cc/tabs/p/pod/school_of_hard_knocks_btab_ver_2.html ]
¤Verse¤
G:|---------------------------|
D:|---------------------------|
A:|------1-1-0---1-1-1--------|
D:|0-0-0----------------5-5-5-|

G:|----------------------------------------|
D:|--------3-------------------------------|
A:|------1---0-----0--1-1-1----1-----------|
D:|0-0-0--------3-5---------1h3---5-5-5---5|

G:|-------|
D:|-------|
A:|-------|
D:|0-0---0|

G:|----------------------------7--------------------------------| (2x)
D:|-------------------------3h5--------------------------------0|
A:|----------------------3h5------------------------------------|
D:|3-3-2--3-3-2--5--3-3-2--------3-3-2--3-3-2--5--3-3-2--3-3-2--|

G:|---------|
D:|----0----|
A:|---------|
D:|0-------0|

¤Chorus¤ 
G:|---------------------------------|
D:|---------------------------------| 
A:|---------------------------------|
D:|0-0--0-0-7--3-3--3-3--10-5-5--5-5|

G:|----------------------------7--------------------------------| (2x)
D:|-------------------------3h5--------------------------------0|
A:|----------------------3h5------------------------------------|
D:|3-3-2--3-3-2--5--3-3-2--------3-3-2--3-3-2--5--3-3-2--3-3-2--|
Comments