Pod - Satellite Chords & Tabs

 

Satellite Chords & Tabs

Pod Chords & Tabs

Version: 2 Type: Tab 0 ratings
1 star 2 stars 3 stars 4 stars 5 stars
comments

Satellite Tab

Author/Artist: P.O.D.
Title: Satellite
Album: Satellite
Transcribed by: Chris
Email: downer@black-magic.net

Tuning: Drop D Down 1 Step (CGCFAD)

I saw them play this live so it should be close to correct.

* - Harmonic

Intro:
------------------------------------------------------------------------------
------------------------------------------------------------------------------
-----777-----777---77-----444-----444---44-----444----444---44-----4444444----
-----999-----999---99-----555-----555---55-----555----555---55-----5555555----
-777-----777-----77----333-----333----33----000----000----00----333-----------
------------------------------------------------------------------------------
 pm.     ...     ..    ...     ...    ..    ...    ...    ..    ...           

First Chorus:
------------------------------------------------------------------------------
------------------------------------------------------------------------------
-99-99-99-99-9--55555-----7777-----99-99-99-99-9------------------------------
-99-99-99-99-9--55555-7777----777--99-99-99-99-9------------------------------
-77-77-77-77-7--53333--------------77-77-77-77-7-777-1312h13p12/9-------------
------------------------------------------------------------------------------
                      ***********                pm.                           
Second Chorus:
------------------------------------------------------------------------------
------------------------------------------------------------------------------
-99-99-99-99-9--55555-----7777-----99-99-99-99-9------------------------------
-99-99-99-99-9--55555-7777----777--99-99-99-99-9------------------------------
-77-77-77-77-7--53333--------------77-77-77-77-7-777-1312h13p12/9-------------
------------------------------------------------------------------------------
                      ***********                pm.                            

------------------------------------------------------------------------------
------------------------------------------------------------------------------
-99-99-99-99-9--55555-----7777-----99-99-99-99-9-----444-----444--------------
-99-99-99-99-9--55555-7777----777--99-99-99-99-9-----555-----555--------------
-77-77-77-77-7--53333--------------77-77-77-77-7--333-----333-----------------
------------------------------------------------------------------------------
                      ***********                 pm.     ...                   
[ Tab from: http://www.guitartabs.cc/tabs/p/pod/satellite_tab_ver_2.html ]
Other Choruses:
------------------------------------------------------------------------------
------------------------------------------------------------------------------
-99-99-99-99-9--55555-----7777-----99-99-99-99-9-----444-----444--------------
-99-99-99-99-9--55555-7777----777--99-99-99-99-9-----555-----555--------------
-77-77-77-77-7--53333--------------77-77-77-77-7--333-----333-----------------
------------------------------------------------------------------------------
                      ***********                 pm.     ...                   

Verse:
------------------------------------------------------------------------------
------------------------------------------------------------------------------
----777----777---77-----444----444---44-----444----444---44-----444----444----
----999----999---99-----555----555---55-----555----555---55-----555----555----
-777----777----77----333----333----33----000----000----00----333----333-------
------------------------------------------------------------------------------
 pm.    ...    ..    ...    ...   ..     ...    ...    ..    ...    ...       

------------------------------------------------------------------------------
------------------------------------------------------------------------------
---44-------------------------------------------------------------------------
---55-------------------------------------------------------------------------
-33---------------------------------------------------------------------------
------------------------------------------------------------------------------
 ..                                                                           

Solo:
------------------------------------------------------------------------------
------------------------------------------------------------------------------
-9-99-9/11-11-11/12-12-12/14-14--16-16/17-16/17-16/17-16/17-------------------
------------------------------------------------------------------------------x2
-7-77-7/9--9--9/10--10-10/12-12--14-14/15-14/15-14/15-14/15-------------------
------------------------------------------------------------------------------

------------------------------------------------------------------------------
------------------------------------------------------------------------------
-19-1919-19/17-17-17/16-16-16/14-14--16-16/17-16/17-16/17-16/17---------------
------------------------------------------------------------------------------x2
-17-1717-17/15-15-15/14-14-14/12-12--14-14/15-14/15-14/15-14/15---------------
------------------------------------------------------------------------------
(this last part is the only one I didnt get a clear look at Marcos' fingering on)

End:
------------------------------------------------------------------------------
------------------------------------------------------------------------------
---7--------------------------------------------------------------------------
--9---------------------------------------------------------------------------
-7----------------------------------------------------------------------------
------------------------------------------------------------------------------
(run your pick down those strings, dont pick individually)

Song Structure:
Intro (1x)
First Chorus(1x)
Verse (3x)
Second Chorus (1x)
Rest
Verse (2x) 
Solo
Other Chorus (2x)
Verse (2x)    
End                                                                     
Comments