Pod - Rock The Party Chords & Tabs

 

Rock The Party Chords & Tabs

Pod Chords & Tabs

Version: 1 Type: Tab 0 ratings
1 star 2 stars 3 stars 4 stars 5 stars
comments

Rock The Party Tab

   
Song: Rock the Party
Band: P.O.D. (Payable On Death)
Album: The Fundamental Elements of Southtown
Tabber: Peter Barringer
Tuning: Dropped D (D a D g b e)
~~
~~
This song is played with constant heavy distortion.

Intro is played with short separated notes.

Intro:

e--
b--
g--
d--0-0-0-0-0-0-0-0--2-2-2--3-3-3-3-3
a--0-0-0-0-0-0-0-0--0-0-0--3-3-3-3-3
d--0-0-0-0-0-0-0-0--0-0-0--3-3-3-3-3

Play the Intro 4x then get steadily quieter as you play this part:

Riff:

e--
b--
g--
d--0-0-0-0-0-0-0-0
a--0-0-0-0-0-0-0-0
d--0-0-0-0-0-0-0-0

The DJ has a small solo then: (same as intro)

[ Tab from: http://www.guitartabs.cc/tabs/p/pod/rock_the_party_tab.html ]
e
b
g
d--0-0-0-0-0-0-0-0--2-2-2--3-3-3-3-3
a--0-0-0-0-0-0-0-0--0-0-0--3-3-3-3-3
d--0-0-0-0-0-0-0-0--0-0-0--3-3-3-3-3

I can't tell what happens between the DJ and guitar,
but if you're playing this with the CD, you should
be fine. I know it's the right base part, but there might
be some riffs on top of it. I'm not sure about the open 
D, but it makes it sound heavier.

Chorus:

e--
b--
g--7--------14--10----
d--7--------14--10----
a--5--------12--10----
d--0---------0---0-----

ORDER

Intro
Riff
Verse
Chorus
Repeat intro riff 2x
Verse
Chorus
DJ solo
Chorus
Verse
Verse

any questions or corrections email to bluerocker18@juno.com
Comments