Pod - Rock The Party Chords & Tabs

 

Rock The Party Chords & Tabs

Pod Chords & Tabs

Version: 2 Type: Bass Tab 0 ratings
1 star 2 stars 3 stars 4 stars 5 stars
comments

Rock The Party Bass Tab

Band: POD
Song: Rock the Party
Album: The Fundamental Elements of Southtown
Bassist: Traa
Tabbed by: LedZeplica

h = hammer on

I cant tell what octave some of this is played in. The whole song might be an 
octrave lower than this. But anyways, I tabbed it like this..

Verse riff..
G|---------------------
D|-----3---------3-----
A|-3-5---5---3-5---5---
E|---------------------

G|-----5---------------
D|-5-7---7-------7-----
A|-----------6-8---8---
E|---------------------
[ Tab from: http://www.guitartabs.cc/tabs/p/pod/rock_the_party_btab_ver_2.html ]
Then the chorus riff is like this. Let each note ring..
G|---------------------
D|---------7-----------
A|-5-----------8-------
E|---------------------


The second verse is played the same as the first.
Then play the chorus again.

Then play this little breakdown..
G|---------------------
D|---------------------
A|-5-5---5-5---5-5h7-5-
E|---------------------

G|---------------------
D|---------------------
A|-5-5---5-5---5-5h7-8-
E|---------------------


Then play the chorus again.
Then the third verse, same as the first.
Then the chorus again.

That's it.. later.

Ledzeplica@aol.com
Comments