Pod - Ridiculous Chords & Tabs

 

Ridiculous Chords & Tabs

Pod Chords & Tabs

Version: 1 Type: Tab 0 ratings
1 star 2 stars 3 stars 4 stars 5 stars
comments

Ridiculous Tab

Band- Pod
Song- Ridiculous

Intro

----------------|-----------------|
----------------|-----------------|
----------------|4444444444444444-|
----------------|-gradual-bend----|
2222222222222222|-and-release-----|
----------------|-----------------|

I heard Marcos Curiel used some type of synth to create that wierd
wah-sounding effect for some of the parts in this song.

Verse

-2---2---2---2--|-2---2---2------|
-3---3---3---3--|-3---3---3--2---|
----------------|------------2---|
----------------|----------------|
----------------|----------------|
----------------|----------------|

Verse Fill (play this throughout the verse)

----------------|----------------|
----------------|----------------|
----------------|----------------| 2.5x
----------------|----------------|
2---------------|2---------------|
----------------|----------------|

Do this 2.5 times and then play this Verse Riff


----------------|----------------|----------------|
----------------|----------------|------------5---|
----------------|----------------|---------4------|
----------------|4---------------|4----4----------|
2---------------|----------------|----------------|
----------------|----------------|----------------|

Chorus

-2--------------|-x--------------|
-3--------------|-x--------------|
-4--------------|-x--------------|
-4--------------|-x--------------|
----------------|----------------|
----------------|----------------|
[ Tab from: http://www.guitartabs.cc/tabs/p/pod/ridiculous_tab.html ]
Use delay set for eighth notes.  After you strike the muted strings the first
time in the second chorus, there is a pickslide.  Don't forget to play it.


Solo

5555555555555555|5555555555555555|-5-4-----4-2----|-2-0-----3-2----|
----------------|----------------|----------------|----------------|
Gradual-bend-up-|-Gradual-Release|----------------|----------------| 2x
--1-Step--------|--back-down-----|----------------|----------------|
----------------|----------------|----------------|----------------|
----------------|----------------|----------------|----------------|

Interlude

----------------|----------------|
----------------|----------------|
------4-4-4-4---|-----4-4-4-4-4--|
----------------|----------------|  8x
---2------------|--2-------------|
----------------|----------------|

Then Later

----------------|----------------|----------------|----------------|
----------------|----------------|-Vol.-Swell-----|----------------|
----------------|----------------|----------------|----------------|
----------------|----------------|----------------|----------------|
4---------------|----------------|4444444444444444|4---------------|
----------------|----------------|----------------|----------------|


The End is slightly different

-2---2---2---2--|-2---2---2------|
-3---3---3---3--|-3---3---3------|
----------------|----------------|
----------------|-------------4--|
----------------|----------------|
----------------|----------------|
Comments