Pod - Revolution Chords & Tabs

 

Revolution Chords & Tabs

Pod Chords & Tabs

Version: 1 Type: Bass Tab 0 ratings
1 star 2 stars 3 stars 4 stars 5 stars
comments

Revolution Bass Tab

-------------------------------------------------------------------------------
			     Revolution - P.O.D.
-------------------------------------------------------------------------------

Tabbed By : jman04
e-mail: jman107@earthlink.net

by the way, all you P.O.D. fans, Payable On Death is a must-buy.
for those who have it, enjoy this tab.

Tuning: dropped D


Intro/chorus
G|--------------------------------------------------------------------|
D|--------------------------------------------------------------------|
A|-----------------------1111-----------------------------------------|
D|-0000-0003000--------5555-------------------------------------------|

[ Tab from: http://www.guitartabs.cc/tabs/p/pod/revolution_btab.html ]
chorus
G|--------------------------------------------------------------------|
D|----------------3---------------------------------------------------|
A|-------------35-----------------------------------------------------|
D|-0--3--5------------------------------------------------------------|


Bridge (the part that bass plays when guitar does solo)
G|--------------------------------------------------------------------|
D|--------------------------------------------------------------------|
A|-------01--12---21--------------------------------------------------|
D|-0--0-----3----3----------------------------------------------------|

Outro
G|--------------------------------------------------------------------|
D|---------------35---------------------------------------------------|
A|------------35-----6-66-66-66---------------------------------------|
D|-0--3--5----------------------------0-------------------------------|


song structure:
_____________
intro      x2
verse    x8
chorus  x2 
verse    x8
chorus x8 (or whatever works, im not counting straight today)
Bridge   x6?
chorus    x8?
outro     x1

note: during certain transactions, the outro is used (without the last D note).
I think ill leave it to you to find those transactions.
Comments