Pod - Portrait Chords & Tabs

 

Portrait Chords & Tabs

Pod Chords & Tabs

Version: 1 Type: Bass Tab 0 ratings
1 star 2 stars 3 stars 4 stars 5 stars
comments

Portrait Bass Tab

   
band: p.o.d.
song: portrait
album: satellite
tabbed by: me[popkorn29@hotmail.com]
intro:
G|-------||
D|-------||
A|-2h3~--||
D|-----0-||
verse:
G|-------------||
D|-------------||
A|-------------||
D|-0-0-0-0-2-3-||
SLOW PART:            FASTER SLOW PART: (LATER IN SONG)
G|-----|-----|-----||-----------|-----------|---------||
D|-----|-----|-----||-----------|-----------|---------||
A|-----|--2--|-----||-----------|--2-2-2-2--|---------||
D|--0--|-----|--3--||--0-0-0-0--|-----------|--3-3-3-3||
                         ^^^^^^^^MORE OR LESS^^^^^^^^
OUTRO: ("I NEED YOU MORE THAN EVER")
G|---------------------|
D|---------------------|
A|---------------------|
D|-0--0-0--0-0-2-2-3-3-|

====
[ Tab from: http://www.guitartabs.cc/tabs/p/pod/portrait_btab.html ]
Comments