Pod - Payable On Death Chords & Tabs

 

Payable On Death Chords & Tabs

Pod Chords & Tabs

Version: 1 Type: Bass Tab

Payable On Death Bass Tab

Band- P.O.D.
Album- Payable On Death

Track Listings:
1.Wildfire
2.Will You
3.Change The World
4.Execute The Sounds
5.Find My Way
6.Revolution
7.The Reasons
8.Freedom Fighters
9.Waiting On Today
10.I And Identify
11.Asthma
12.Eternal

-----------------------------------------------------

1.WILDFIRE

Fig. 1
F|------------------------------------|
C|------------------------------------|
G|-------------------------------6-3--|
C|-9-9-9-5-5-5-0~--8-8-8-5-1~-x-----x-|

F|------------------------------------|
C|------------------------------------|
G|------------------------------------|
C|-9-9-9-5-5-5-0~--8-8-8-5-1~-x-1-----|

F|------------------------------------|
C|------------------------------------|
G|------------------------------------|
C|-9-9-9-9-9-9-12--8-8-8-8-8-8-13-----|


F|--------------------------------------------------|
C|--------------------------------------------------|
G|-9-9-9--9~-----------/12-12-12--12~-12-12-12--12~-|
C|-----------5-5-5--5~------------------------------|

F|----------------------------------------------------------------------------------|
C|----------------------------------------------------------------------------------|
G|-9-9-9-9-9-9-9-9-----------------/12-12-12-12-12-12-12-12-12-12-12-12-12-12-12-12-|
C|-----------------5-5-5-5-5-5-5-5--------------------------------------------------|

2.WILL YOU

Intro
A|---------------------|--------------------|----------------------|-------------------|
D|---------------------|--------------------|----------------------|-----------7-------|
G|-7---7-R-X-7----7/9--|-5---5-R—0-5----5/7\3---3-R-0-3----3/5---|---------7----7----|
C|---------------------|--------------------|----------------------|-5---5-R---------5-|
F|---------------------|--------------------|----------------------|-------------------|

A|------------------|----------------------|---------------------|---------------------|
D|------------------|-----------7----------|---------------------|---------------------|
G|-7---7-R-X-7---7-7\5---5-R-X----5--(5)--|-3---3-R-X-3--5--3-5-|----------7-----------|
C|------------------|----------------------|---------------------|-5--5-R-5---5-5-5-5--|
F|------------------|----------------------|---------------------|---------------------|

Verse
A|-----------------------------------------------------------------|-------|
D|-----------------------------------------------------------------|--%----|
G|-----------------------------------------------------------------|-------|
C|-0-0-0-0-0-0-0-0---0----------------------------5-5-5-5-5-5--R--|--------|
F|----------------------3\1-1-1-1-1-1-1---1---3-------------------|--------| x4

Chorus 1
A|---------------------|---------------------|--------------------|------------------|
D|----------------9----|---------------------|--------------------|---------7--------|
G|-7---7-R-X-7--7---7--|5---5-R-0-5--5-5-(5)-|3---3-R-0-3--3-3-3--|-----R-7----7-----|
C|---------------------|---------------------|-------------------0|5---5----------5--|
F|---------------------|---------------------|--------------------|------------------|

A|----------------------|-------------------|-------------------|------------------------|
D|----------------------|-------------------|-------------------|------------------------|
G|--7--7-R-7-7--7-7-7-7-|5--5-R-5-5--5-5-5-0|3--3-3-R-3-3--3-3—5|----------------------|
C|----------------------|-------------------|-------------------|5--5-R-0-5-5-57-5-5-----|
F|----------------------|-------------------|-------------------|------------------------|

Verse x4

Chorus 2
A|---------------------|---------------------|--------------------|--------------------|
D|----------------9----|---------------------|--------------------|---------7----------|
G|7-7-7-7-R-X-7-7----7-|5---5-R-0--5-7-7-5--0|3--3-R-3--3--3-3-35|-----R-7---7---------|
C|---------------------|---------------------|--------------------|5---5----------5----|
F|---------------------|---------------------|--------------------|--------------------|

A|--------------7-9-|7-------------------------------------------|---------------------|
D|-----------7-9----|-----7-(7)------------------------------5---|---------------------|
G|7---7R7-7-9-------|----------X—5-5-5-7-5\\3-3-3-3-3--3-3----3|---------------------|
C|------------------|--------------------------------------------|5--5-0-0-5-5-57-5/|--|
F|------------------|--------------------------------------------|---------------------|

A|--------------------------------------------|-------------------------------------|
D|--------------------------------------------|-------------------------------------|
G|--------------------------------------------|-8--8--8--8--8--8--8--8--8--8--8--8--|
C|--1---1---1---1--R--X---1---1---1---1--R--X-|-------------------------------------|
F|--------------------------------------------|-------------------------------------|


Bridge (Those are 12’s and 14’s and an occasional 0)
A|-----------------|-------------------|14----------------|--------------------------|
D|--14-----14---140|-1412--1212-12-----|--------------14--|14----14------------12120-|
G|-----------------|-------------------|------1212--------|-----------0-12/14--------|
C|-----------------|-------------------|------------------|--------------------------|
F|-----------------|-------------------|------------------|--------------------------|

A|------------9------9-|-------------------------------------|-----------------------|
D|--------------------0|-9-----9-9//5-----5--------------R--|-7--------7------7/9----|
G|--7------------------|-------------------3-------3--------|------------------------|
C|---------------------|-------------------------------------|-----------------------|
F|---------------------|-------------------------------------|-----------------------|

A|--9--------9--9-11-97-|-----------------------|-------------------|------------------|
D|-----------------------|9----9-9\5----5-7-5--|-------------------|-7----7-7-7-7------|
G|-----------------------|----------------------0|-3-------3-----3/5-|-----------------|
C|-----------------------|-----------------------|-------------------|-----------------|
F|-----------------------|-----------------------|-------------------|-----------------|

A|--------------------|------------------|----------------------|----------------------|
D|----------9-----9---|------------------|----------------------|----------------------|
G|7--7--7--7----7---7-|5--5---5-5--5-R-5-|3-3-3-3-3-3-3---3--R-0|----------------------|
C|--------------------|------------------|----------------------|5--5-5---5-5--5-7-7-7-|
F|--------------------|------------------|----------------------|----------------------|

A|--------------------|---------------------|------------------|-----------------------|
D|--------------9---9-|--------------7----7-|------------5---7-|-----------------------|
G|7-7-7-7-7-7-7----7-7|-5-5-5-5-5-5-5----5-5|3--3--3-3-3----3-0|-----------------------|
C|--------------------|---------------------|------------------|-5-5-5-5-5-5-5-5-5-5-X-|
F|--------------------|---------------------|------------------|-----------------------|

Chorus 3
A|---------------------|-------------------|-------------------|---------------------|
D|---------------------|-------------------|-3---3-3-3-3---3-5-|---------------------|
G|---------------------|-------------------|-------------------|---------------------|
C|--3-2--3-3-2-0--0--0-|-------------------|-------------------|-5-5-5-5-5-0-5---5-5-|
F|---------------------|-3---3-3-3-3--3--3-|-------------------|---------------------|

A|----------------------|------------------|---------------------|---------------------|
D|----------------------|------------------|---------------------|---------------------|
G|----------------------|-----------5------|3---3-3-3-3--3-3-5-5-|57-7-7------7--------|
C|-0-2--3-3-2-0---0-0-0-|-----5-5------5---|---------------------|---------0-5----5-5--|
F|----------------------|3-------3-------3-|---------------------|---------------------|

A|----------------------|-----------------|-------------------|-----------------------|
D|----------------------|-----------------|-------------------|-5-7-7-------7---------|
G|----------------------|-----------------|3--3-3-3-3--3-35--|-------7-R-7----7-------|
C|-0-2--3-3-2-0---0-0-0-|-----------------|-------------------|-------------------5---|
F|----------------------|-3--3-3-3-3--3-3-|-------------------|-----------------------|

A|--------------------|--------------------|--------------------|---------------------|
D|7----7---79--7-7-0-|5---5-5-0-5-7--5-5-0|--------------------|----------------------|
G|-------X------------|--------------------|3---3-R-3-3-5--3-3--|---------------------|
C|--------------------|--------------------|-------------------0|5--5-5-0-5-7-7-5-5---|
F|--------------------|--------------------|--------------------|---------------------|

Outro becomes 8/8 time
A|-----------------|------------------|-------------------|-------------------------|
D|-----------------|------------------|-------------------|-------------------------|
G|-----------------|------------------|3---3-3-R-3--3-3-R-|-------------------------|
C|0--0-0-R-0--0-0-R|-------5----------|-------------------|-5--5-5-5-0--5--5-5-5-5-7|
F|-----------------|3--3-3---0--0-0-R-|-------------------|-------------------------|
                                                           Gradually slower-----
A|------------------|------------------|------------------|---------------------|
D|------------------|------------------|------------------|---------------------|
G|------------------|------------------|-3--3-3-R-3--3-3-R|---------------------|
C|-0--0-0-R-0--0-0-R|------------------|------------------|-5--5-5-0--5--5-5-0--|
F|------------------|-3--3-3-R-3--3-3-R|------------------|---------------------|

End on
A|-----|
D|-----|
G|--7--|
C|-----|
F|-----|

3.CHANGE THE WORLD

Don't Know

4.EXECUTE THE SOUNDS

Verse
G ------------------------|
D ------------------------|
A ------------------------| Keep playing until the chorus
D -3r--0r-4r-3r--0r-4r-1--|

Chorus                           only 4th time 2x
G ----------------------------|----------|
D -----(5)--(5)--(8)----------|----------| (): not sure if he plays these
A ----------------------------|----------| 4x
D -333---333---666---444444---|-444444---|

Verse
Chorus

Bridge
G ------------------------|
D ------------------------|
A -34313------34313-44----| 4x
D ------33-66---------44--|

Chorus
[ Tab from: http://www.guitartabs.cc/tabs/p/pod/payable_on_death_btab.html ]
End
G ------------------|
D ------------------|
A ------------------|
D -3--4--3--04--3r--|

5.FIND MY WAY

Chorus
G -----------------------------|
D -----------------------------| 2x
A -55555--5555-------------11--|
D -------8-----88-55555-33-----|

Verse    2x                        2x
G ---------------------------|-------------------------|
D ---------------------------|-------------------------|
A ----11r---33r--------------|-----11r---33r-----7545--|
D -00r----------55r----------|-00r-----------55r-------|

Chorus 2x

After Chorus
G -----------------------|
D -----------------------|
A --------------------11-| 2x
D -0000-/4000-0000-33----|

verse
Chorus 2x
After Chorus 2x

Breakdown I
G --------------------------------|
D --------------------------------|
A --------------------------------| 2x
D -7777-3-0--30308888-33-555-888--|

Breakdown II
G ---------------------------------|
D ---------------------------------|
A --------------111-----------000--| 2x
D -888555-3-3-3-----03030-303------|

Rest for a couple of seconds

Chorus 2x
After Chorus 2x
Breakdown I 1x

6.REVOLUTION

Intro/chorus
G|--------------------------------------------------------------------|
D|--------------------------------------------------------------------|
A|-----------------------1111-----------------------------------------|
D|-0000-0003000--------5555-------------------------------------------|


chorus
G|--------------------------------------------------------------------|
D|----------------3---------------------------------------------------|
A|-------------35-----------------------------------------------------|
D|-0--3--5------------------------------------------------------------|


Bridge (the part that bass plays when guitar does solo)
G|--------------------------------------------------------------------|
D|--------------------------------------------------------------------|
A|-------01--12---21--------------------------------------------------|
D|-0--0-----3----3----------------------------------------------------|

Outro
G|--------------------------------------------------------------------|
D|---------------35---------------------------------------------------|
A|------------35-----6-66-66-66---------------------------------------|
D|-0--3--5----------------------------0-------------------------------|


song structure:
_____________
intro      x2
verse    x8
chorus  x2
verse    x8
chorus x8 (or whatever works, im not counting straight today)
Bridge   x6?
chorus    x8?
outro     x1

7.THE REASONS

Intro
G|-------------------------------------------------------------------|
D|-------------------------------------------------------------------|
A|--3--0-------------------------------------------------------------|
D|---------1---------------------------------------------------------|


verses
G|-------------------------------------------------------------------|
D|-------------------------------------------------------------------|
A|------------11-----------------------------------------------------|
D|-000333----5555----------------------------------------------------|


chorus
G|-------------------------------------------------------------------|
D|-------------------------------------------------------------------|
A|---11111111-1111-3-------------------------------------------------|
D|----------------------------00000023-20-23-------------------------|


bridge
G|-------------------------------------------------------------------|
D|-------------------------------------------------------------------|
A|----1-0------------1-0-----33--------------------------------------|
D|-0--0---0313-0--0---03---------------------------------------------|


Outro
G|-------------------------------------------------------------------|
D|-------------------------------------------------------------------|
A|-------1----------1------------------------------------------------|
D|--0--------0-------------------------------------------------------|

Song Structure:

Intro      x1
Verses  x8
chorus  x4
verses   x8
chorus   x4
bridge   x8
chorus  x8
outro     x1

8.FREEDOM FIGHTERS

Don't Know

9.WAITING ON TODAY

Intro/transaction
G|--------------------------------------------------------------------|
D|--------------------------------------------------------------------|
A|---6666-6666--------------------------------------------------------|
D|-------------------5555-5555----------------------------------------|


verses
G|--------------------------------------------------------------------|
D|----------010---------010---------010---------010-------------------|
A|---3333------53333-----50000------50000-----5-----------------------|
D|--------------------------------------------------------------------|

Prechorus
G|--------------------------------------------------------------------|
D|--------------------------------------------------------------------|
A|------353---353---353--353------------------------------------------|
D|--33-----33-----00----00--------------------------------------------|


chorus
G|--------------------------------------------------------------------|
D|-------------------5--5---------------------------------------------|
A|---6--1---------5--5--5---------------------------------------------|
D|----------5555------------------------------------------------------|


outro
G|--------------------------------------------------------------------|
D|--------------------------------------------------------------------|
A|--6--6/1------------------------------------------------------------|
D|-----------5--------------------------------------------------------|


Song Structure:

Intro   x2
verses   x2
prechorus  x2
chorus     x2
verse    x2
prechorus     x2
chorus    x4
transaction   x2
prechorus    x4
chorus     x4
Outro      x1

10.I AND IDENTIFY

Don't Know

11.ASTHMA

Intro: 3x                           | 4th time:
F-----------------------------------|--------------------------------|
C-----------------------------------|--------------------------------|
G-----------------------------------|--------------------------------|
C---0------------3--------5---------|----0--------3-------5--5--5----|

**Chorus: 2x
F-------------------------------------------------------------------------------------------------------------|
C-------------------------------------------------------------------------------------------------------------|
G-------------------------------------------------------------------------7--7---8--8---10--10--10--10--10----|
C-----8--8--8-8-8-8-8-8-8-8-8-8-8-8-8-8-------0--0--0--0--0--0--0---------------------------------------------|

Chorus Breakdown:
F----------------------------------------------------------------------------------------------------------|
C----------------------------------------------------------------------------------------------------------|
G----------------------------------------------------------------------------------------------------------|
C-----8--8--8--8-------------8--8--8--8------------7--7--7--7------------7--7--7--7------------------------|

Verse:
F------------------------------------------------------------------------------------------------------|
C------------------------------------------------------------------------------------------------------|
G-------0----------------------------------------------------------------3-----------------5-----------|
C---0------------0-----3----3---5--5------------0--------------0-------3---3-------0-----5---5---------|

Then:
F------------------------------------------------------------------------------------------------|
C------------------------------------------------------------------------------------------------|
G-------0------------------------------------------------------------3---------------------------|
C---0------------0-----3-------5------------0--------------0-------3---3----------5--5--5--------|

**Chorus: 2x
F---------------------------------------------------------------------------------------------------------|
C---------------------------------------------------------------------------------------------------------|
G---------------------------------------------------------------------7--7---8--8---10--10--10--10--10----|
C-----8--8--8-8-8-8-8-8-8-8-8-8-8-8-8-8-------0--0--0--0--0--0--0-----------------------------------------|

Chorus Breakdown:
F----------------------------------------------------------------------------------------------|
C----------------------------------------------------------------------------------------------|
G----------------------------------------------------------------------------------------------|
C-----8--8--8--8-------------8--8--8--8-------------7--7-7-7---------------7--7--7--7----------|

Solo: 2x
F---------------------------------------------------------------------|
C---------------------------------------------------------------------|
G------------------------------5--------------------------------------|
C---0----10---7---5---0--0----------0---10---12---7--7--5---7--8-8----|

**Chorus: 2x
F-----------------------------------------------------------------------------------------------------------|
C-----------------------------------------------------------------------------------------------------------|
G-----------------------------------------------------------------------7--7---8--8---10--10--10--10--10----|
C-----8--8--8-8-8-8-8-8-8-8-8-8-8-8-8-8-------0--0--0--0--0--0--0-------------------------------------------|

Chorus Breakdown 2nd time ends w/:
F-----------------------------------------------------------------------------------------------|---------------|
C--------------8--8--8--8-------------------/8------------------7--7--7--7--------------/10-----|--10-10-10-10--|
G-----------------------------------------------------------------------------------------------|---------------|
C---8--8--8--8--------------8--8--8--8----------------7-7-7-7---------------7--7--7--7----------|---------------|

Outro: 2x
F-----------------------------------|--------------------------------------------------|
C-----------------------------------|--------------------------------------------------|
G-----------------------------------|--------------------------------------------------|
C---0------------3--------5---------|-----0--0-------0--0----0--0-----0--0---------0---|
                                          .          .       .        .

12.ETERNAL

Don't Know