Pod - Live And Die Chords & Tabs

 

Live And Die Chords & Tabs

Pod Chords & Tabs

Version: 1 Type: Tab 0 ratings
1 star 2 stars 3 stars 4 stars 5 stars
comments

Live And Die Tab

drop D tuning
[ Tab from: http://www.guitartabs.cc/tabs/p/pod/live_and_die_tab.html ]
e----------------------------------------------------------------------------
b----------------------------------------------------------------------------
g----------------------------------------------------------------------------
d----------------------------------------------------------------------------
a-------------------------------------3-5-5-5-5-5--1-3-3-3-3-3--0-1----------
D--3-5-5-5-5-5--3-5-5-5-5-5--3-5-5-5--------------------------------1-3-repeat 


e----------------------------------------------------------------------------
b----------------------------------------------------------------------------
g----------------------------------------------------------------------------
d----------------------3----------------------3------------------------------
a--6-5---5-3---5-3--------6-5---5-3---5-3------------------------------------
D------5-----3-----3-3--------5-----3-----3-3---------------------------repeat 
Comments