Pod - Lie Down Chords & Tabs

 

Lie Down Chords & Tabs

Pod Chords & Tabs

Version: 4 Type: Tab 0 ratings
1 star 2 stars 3 stars 4 stars 5 stars
comments

Lie Down Tab

Tabber: InfestedRoach 
Song: Lie Down
Tuning: DGCFAD, also sounds pretty good on standard

Youíre gonna have to listen to the song to get the rhythm right for each part,
unless you already know itÖI haven't really put the parts in order, cuz the song
is pretty long. I have most of the song, just canít figure out some parts quite
yet, once I do Iíll tab Ďem, but till then here you go. 

Intro: distorted
D|---------------------------------------5-5-5-5---------3-3-3-3-3-3-3-3----|
A|-2-0-0-0-0-3-0-0-0-0-3-0-0-0-0-5-5-5-5---------3-3-3-3--------------------| 
F|--------------------------------------------------------------------------|
C|--------------------------------------------------------------------------|
G|--------------------------------------------------------------------------|
D|--------------------------------------------------------------------------|

DistortedÖ play 4 times
D|------------------------------------------------------------------------|
A|------------------------------------------------------------------------|
F|------------------------------------------------------------------------|
C|-3-2-2--2-5-2-2--2-3-2-2--2-5-2-2-2--3-2-2--2-5-2-2--2-3-2-2--2-5-2-2-2-|
G|-3-2-2--2-5-2-2--2-3-2-2--2-5-2-2-2--3-2-2--2-5-2-2--2-3-2-2--2-5-2-2-2-| 
D|-1-0-0--0-3-0-0--0-1-0-0--0-3-0-0-0--1-0-0--0-3-0-0--0-1-0-0--0-3-0-0-0-|
                                       ^^^^^^^^^^^palm muted^^^^^^^^^^^^^
[ Tab from: http://www.guitartabs.cc/tabs/p/pod/lie_down_tab_ver_4.html ]
Intro Verse: Clean
D|---------------------------------|
A|---------------------------------| 
F|---------------------------------| Play 8 times
C|---------------------------------|
G|---6-6---6-6---6-6-6/7-----------|
D|-4-----4-----4-------------------|
   ^^^^palm Muted^^^
The slide from the 6 to the 7 isnít muted

Verse: distorted
D|---------------------------------|
A|---------------------------------| 
F|---------------------------------| Play 8 times
C|---------------------------------|
G|---6-6---6-6---6-6-6/7-----------|
D|-4-----4-----4-------------------|


Clean
D|----------------------------|
A|----------------------------| 
F|----------------------------| Play 8 times 
C|-----0----0------0----------|
G|---6----6------6------------|
D|-4----4----4-4--------------|

Distorted
D|------------------------|
A|------------------------| 
F|------------------------| Play 4 times
C|-7-7-7/8-8-8-8-0--------|
G|-7-7-7/8-8-8-8-0--------|
D|-5-5-5/6-6-6-6-0--------|

Outro: Distortion
D|--------------------------------------|
A|--------------------------------------| 
F|--------------------------------------| Play 7 times, then end with the part
C|------0------0--3-3-3-----------------| below 
G|----6------6----3-3-3-----------------|
D|-44-----44------1-1-1-----------------|
                  ^^^^^ Palm mute

D|-------------------------------------|
A|-------------------------------------| 
F|-------------------------------------| The last power chord isnít muted and
C|------0-----0--3-3-3-3-3~~~~~~~~~~~--| let it ring out
G|----6-----6----3-3-3-3-3~~~~~~~~~~~--|
D|-44----44------1-1-1-1-1~~~~~~~~~~~--|
                 ^^P.M.^
Comments