Pod - Lie Down Chords & Tabs

 

Lie Down Chords & Tabs

Pod Chords & Tabs

Version: 2 Type: Tab 0 ratings
1 star 2 stars 3 stars 4 stars 5 stars
comments

Lie Down Tab

   
Name: Dave Sutton

Tabs: Author/Artist: P.O.D.
Title: Lie Down
Album: The Fundamental Elements Of Southtown
Transcribed by: Dave Sutton



Drop D tuning (D,A,D,G,B,E)

e----------------------333111---------------------|
B-200030002000-----------3------------------------|
G-------------------------------------------------|
D-------------------------------------------------|
A-------------------------------------------------|
D-------------------------------------------------|

-------------------333--------------------------------------------------------
-53333-63333-53333-----111-3--------------------------------------------------
------------------------------------------------------------------------------
------------------------------------------------------------------------------
------------------------------------------------------------------------------
------------------------------------------------------------------------------
  above is the intro,the next part is the part after the intro and also 
the

------------------------------------------------------------------------------
------------------------------------------------------------------------------
------------------------------------------------------------------------------
-0-2-0-0-0-3-0-0--------------------------------------------------------------
-0-2-0-0-0-3-0-0--x2----------------------------------------------------------
-0-2-0-0-0-3-0-0--------------------------------------------------------------
 verse

------------------------------------------------------------------------------
------------------------------------------------------------------------------
------------------------------------------------------------------------------
-0-2-0-0-0-3-0-0--------------------------------------------------------------
-0-2-0-0-0-3-0-0--x2----------------------------------------------------------
-0-2-0-0-0-3-0-0--------------------------------------------------------------
  repeat the last two parts many times in succesion to figure out how 
many

------------------------------------------------------------------------------
------------------------------------------------------------------------------
------------------------------------------------------------------------------
------------------------------------------------------------------------------
------------------------------------------------------------------------------
------------------------------------------------------------------------------
 times it is repeated,palm mute last part.

------------------------------------------------------------------------------
------------------------------------------------------------------------------
------------------------------------------------------------------------------
------------------------------------------------------------------------------
-----3-3-----3-3-----3-3h4----------------------------------------------------
-0-3-----0-3-----0-3----------------------------------------------------------
    above is part right before verse
[ Tab from: http://www.guitartabs.cc/tabs/p/pod/lie_down_tab_ver_2.html ]
------------------------------------------------------------------------------
------------------------------------------------------------------------------
------------------------------------------------------------------------------
-2-4-4--4-2-4-4--4-2-4-5------------------------------------------------------
-2-4-4--4-2-4-4--4-2-4-5------------------------------------------------------
-2-4-4--4-2-4-4--4-2-4-5------------------------------------------------------


------------------------------------------------------------------------------
------------------------------------------------------------------------------
------------------------------------------------------------------------------
-2p0-0-0-3p0-0-0--------2p0-0-0--3p0-0-0--------------------------------------
-2p0-0-0-3p0-0-0--------2p0-0-0--3p0-0-0--------------------------------------
-2p0-0-0-3p0-0-0--------2p0-0-0--3p0-0-0--------------------------------------
          above part is the verse,the second set of pulloffs is P.M.

------------------------------------------------------------------------------
------------------------------------------------------------------------------
------------------------------------------------------------------------------
-5--5-5-5--5/6--6-6--0-0-0----------------------------------------------------
-5--5-5-5--5/6--6-6--0-0-0----------------------------------------------------
-5--5-5-5--5/6--6-6--0-0-0----------------------------------------------------
       above is the chorus

------------------------------------------------------------------------------
------------------------------------------------------------------------------
------------------------------------------------------------------------------
------------------------------------------------------------------------------
------------------------------------------------------------------------------
-2-0-0-0-3-0-0-0-2-0-0-0-3-0-0-0----------------------------------------------
 after this comes verse,then chorus,then part right after verse,then 
the

------------------------------------------------------------------------------
------------------------------------------------------------------------------
------------------------------------------------------------------------------
------------------------------------------------------------------------------
------------------------------------------------------------------------------
------------------------------------------------------------------------------
 heavy part after that.

------------------------|-----------------------------------------------------
------------------------|-----------------------------------------------------
------------------------|-----------------------------------------------------
------------------------|-----------------------------------------------------
-----4-3-----4-3-----4-3|-----------------------------------------------------
-0-4-----0-4-----0-4----|-----------------------------------------------------


--------|---------------------------------------------------------------------
--------|---------------------------------------------------------------------
-----6-5|---------------------------------------------------------------------
-0-4-6-5|-1-------------------------------------------------------------------
-0-4-4-3|-1-------------------------------------------------------------------
-0-4----|-1-------------------------------------------------------------------
 this is the last part of the song.

------------------------------------------------------------------------------
------------------------------------------------------------------------------
------------------------------------------------------------------------------
------------------------------------------------------------------------------
------------------------------------------------------------------------------
------------------------------------------------------------------------------
 well,that's it. hope you enjoy.

Comments