Pod - Lie Down Chords & Tabs

 

Lie Down Chords & Tabs

Pod Chords & Tabs

Version: 1 Type: Tab 0 ratings
1 star 2 stars 3 stars 4 stars 5 stars
comments

Lie Down Tab

   
Name: brock clauser

Tabs: song: Lie Down
band: POD

drop d tuning 

intro (w/ acoustic effect)
e-------------------------------------3-3-3------------------------
b-6-3-3-3-3-3-6-3-3-3-3-3-6-3-3-3-3-3--------3-3-3-6-6-6-6-6-6

intro ll (Lie down...)     
 
e---------------------------------------------------------------
b---------------------------------------------------------------
g---------------------------------------------------------------
d-1-0-0-0-1-0-0-0-1-0-0-0-1-0-0-0--1-0-0-0-1-0-0-0-1-0-0-0-1-0-0-0
a-1-0-0-0-1-0-0-0-1-0-0-0-1-0-0-0--1-0-0-0-1-0-0-0-1-0-0-0-1-0-0-0
D-1-0-0-0-1-0-0-0-1-0-0-0-1-0-0-0--1-0-0-0-1-0-0-0-1-0-0-0-1-0-0-0
					     (palm muted)

Chorus
e-----------------------------------------
b-----------------------------------------
g-----------------------------------------
d-----------------------------------------
a-----4-4-4----4-4-4-----4h5~~~~
D-0----------0----------0--------------

[ Tab from: http://www.guitartabs.cc/tabs/p/pod/lie_down_tab.html ]
Verse
 heavy dist.
e--------------------------------
b--------------------------------
g--------------------------------
d-1-0-0-0-1-0-0-0-1-0-0-
a-1-0-0-0-1-0-0-0-1-0-0-
d-1-0-0-0-1-0-0-0-1-0-0

Bridge/Outro
e----------------------------------
b----------------------------------
g----------------------------------
d----------------------------0
a----5-4---4-5-4----5-4------0
D-0------0---------0---------0

Pre-chorus
e---------------------------------
b---------------------------------
g-6-6-6-6-7-7-7-7-8--------
d-4-4-4-4-5-5-5-5-6-0~
a-4-4-4-4-5-5-5-5-6-0
d-4-4-4-4-5-5-5-5-6-0

Song Order:

Intro 1X

Intro ll- 4Xs (heavy dist.)

chorus 8Xs (clean)

chorus 8Xs (heavy dist.)

verse  4Xs (heavy dist.)

verse 4Xs (heavy dist. and palm muted)

prechorus 4Xs (heavy dist.)

verse 6Xs [guitar effect (check song)]

verse 4xs (heavy dist. and palm muted)

prechorus 4Xs (heavy dist.)

chorus 8Xs (clean)

chorus 8xs (heavy)

verse 4Xs (heavy dist.)

verse 4Xs (heavy dist. and palm muted)

prechorus 2Xs (heavy dist.)

bridge 4Xs (clean)

outro 4Xs (heavy)

---------------------------------------------------------------------------
Comments