Pod - Lie Down Chords & Tabs

 

Lie Down Chords & Tabs

Pod Chords & Tabs

Version: 1 Type: Bass Tab 0 ratings
1 star 2 stars 3 stars 4 stars 5 stars
comments

Lie Down Bass Tab

Band- Pod
Song- Lie Down

Intro
G-----------------------------------------|
D-----------------------------------------|
A-----------------------------------------|
D-1-0-0--0-3-0-0--0-1-0-0--0-3-0-0---0----|

Verse
G-------------------------------|
D-------------------------------|
A-------------------------------|
D-1-0-0--0-3-0-0--0-1-0-0-0-0---|
[ Tab from: http://www.guitartabs.cc/tabs/p/pod/lie_down_btab.html ]
Chorus
G-------------------------------|
D-------------------------------|
A----4-4-------4-4-----4h5------|
D-4-------4-4-------4-----------|

Pre-Chorus
G-------------------------|
D-------------------------|
A-------------------------|
D-0/5-5-5-5/6-6-6-0-0-0---|

Bridge
G-------------------------|
D-------------------------|
A-----4---3----(3)--------|
D-4-----------------------|

Outro
G-----------------------------------|
D-----------------------------------|
A----4-3------4-3----4h3------------|
D-4-------4-4------4-----0-----(0)--|
Comments