Pod - Freestyle Chords & Tabs

 

Freestyle Chords & Tabs

Pod Chords & Tabs

Version: 1 Type: Tab 0 ratings
1 star 2 stars 3 stars 4 stars 5 stars
comments

Freestyle Tab

   
Band- Pod
Song- Freestyle
[ Tab from: http://www.guitartabs.cc/tabs/p/pod/freestyle_tab.html ]
TUNING: drop d (d,A,d,G,B,E) 
 
 
 
     INTRO PART A: 
 
    |--------------------| 
    |------5-5--6-6--5-5-| 
    |--------------------| 
    |--------------------| 
    |-0-0----------------| 
    |--------------------| 
 
     INTRO PART B: 
 
    |--------------------| 
    |------5----6-6--5-5-| 
    |--------7-----------| 
    |--------------------| 
    |-0-0----------------| 
    |--------------------| 
 
     VERSE: 
 
    |------------------------------------| 
    |------------------------------------| 
    |-7-7-7-7-7-7-7-7-5-5-5-10-10-10-9-9-| 
    |-7-7-7-7-7-7-7-7-5-5-5-10-10-10-9-9-| 
    |-5-5-5-5-5-5-5-5-3-3-3--8--8--8-7-7-| 
    |------------------------------------| 
 
     PRE-CHORUS: 
 
    |---------------------------------| 
    |---------------------------------| 
    |-7-7-7-7-7-7-7-7-7-7-7-7-7-7-7-7-| 
    |-7-7-7-7-7-7-7-7-7-7-7-7-7-7-7-7-| 
    |-5-5-5-5-5-5-5-5-5-5-5-5-5-5-5-5-| 
    |---------------------------------| 
 
     CHORUS: 
 
    |-----------------------------------| 
    |-----------------------------------| 
    |-----12-12-12-12\11-11-11-11-11/12-| 
    |-----12-12-12-12\11-11-11-11-11/12-| 
    |-----10-10-10-10\-9--9--9--9--9/10-| 
    |-5-5-------------------------------| 
 
     BRIDGE: 
  
    |--------------------------| 
    |--------------------------| 
    |--------------------------| 
    |-5-5-5--5-0-----0-8---0-8-| 
    |-5-5-5--5-0-----0-8---0-8-| 
    |-5-5-5--5-0-----0-8---0-8-|
Comments