Pod - Follow Me Chords & Tabs

 

Follow Me Chords & Tabs

Pod Chords & Tabs

Version: 1 Type: Tab 0 ratings
1 star 2 stars 3 stars 4 stars 5 stars
comments

Follow Me Tab

   
Band- Pod
Song- Follow Me
[ Tab from: http://www.guitartabs.cc/tabs/p/pod/follow_me_tab.html ]
TUNING: drop d (d,A,d,G,B,E) 
 
 
        ^ = bend 
 
 
      INTRO PART A: 
 
    |------------------------------------------------------------| 
    |------------------------------------------------------------| 
    |------------------------------------------------------------| 
    |-2-2-2--2-3----2-2-2--2-3----2-2-2--2-3----2-2-2--2-5\3-----| 
    |-2-2-2--2---3--2-2-2--2---3--2-2-2--2---3--2-2-2--2-----5\3-| 
    |-2-2-2--2------2-2-2--2------2-2-2--2------2-2-2--2---------| 
 
     INTRO PART B: 
 
    |----------------| 
    |----------------| 
    |-9-9--9--9-9--9-| 
    |-9-9--9--9-9--9-| 
    |-7-7--7--7-7--7-| 
    |----------------| 
 
     RIFF A: 
 
    |----------------------------------| 
    |----------------------------------| 
    |----------------------------------| 
    |-2-2-2--2--------2-2-2--2-x-x-x-x-| 
    |-2-2-2--2-7-5-7--2-2-2--2-x-x-x-x-| 
    |-2-2-2--2--------2-2-2--2-x-x-x-x-| 
 
    |--------------------------------------| 
    |--------------------------------------| 
    |--------------------------------------| 
    |-2-2-2--2--------2-2-2--2-x-x-x-x-x-x-| 
    |-2-2-2--2-7-5-7--2-2-2--2-x-x-x-x-x-x-| 
    |-2-2-2--2--------2-2-2--2-x-x-x-x-x-x-| 
 
     FILL: (before verse) 
 
    |---| 
    |---| 
    |---| 
    |-2-| 
    |-2-| 
    |-2-| 
 
 
     RIFF B: 
 
    |--------------------------------| 
    |--------------------------------| 
    |--------------------------------| 
    |-2-2-2--2------2-2-2--2---------| 
    |-2-2-2--2-7^7--2-2-2--2-7-5-7-5-| 
    |-2-2-2--2------2-2-2--2---------| 
 
     RIFF C: 
 
    |-------------------------| 
    |-------------------------| 
    |-------------9-9---------| 
    |-2-2-x-x-x-x-9-9-x-x-x-x-| 
    |-2-2-x-x-x-x-7-7-x-x-x-x-| 
    |-2-2-x-x-x-x-----x-x-x-x-| 
 
     RIFF d: 
 
    |-----------------| 
    |-----------------| 
    |-9--------7-4--4-| 
    |-9-2-2--2-7-4--4-| 
    |-7-2-2--2-5-2--2-| 
    |---2-2--2--------|
Comments