Pod - Find My Way Chords & Tabs

 

Find My Way Chords & Tabs

Pod Chords & Tabs

Version: 2 Type: Tab 0 ratings
1 star 2 stars 3 stars 4 stars 5 stars
comments

Find My Way Tab

Tuning: Standard


Intro (play 2x):

E------------------------------------------------------------
B------------------------------------------------------------
G------------------------------------------------------------
D------------------------------------------------------------
A---7-7-7-7-8---7-7-8-8---7-7-7-7-8---5-5-10-10--------------
E---7-7-7-7-8---7-7-8-8---7-7-7-7-8---5-5-10-10--------------


Verse (play 2x): "I don't know how to let you go..."

E-----------12------------------12---------------------------
B---9-----------12-------9-----------------------------------
G-------9-------------------9--------------------------------
D------------------------------------------------------------
A------------------------------------------------------------
E------------------------------------------------------------


Prechorus (play 2x):"See through my eyes and you will know..."

E------------------------------------------------------------
B------------------------------------------------------------
G---9--7----9--7----9--7----9--6-----------------------------
D---9--7----9--7----9--7----9--6-----------------------------
A------------------------------------------------------------
E------------------------------------------------------------


Chorus: "I still got a ways to go..."

E------------------------------------------------------------
B------------------------------------------------------------
G------------------------------------------------------------
D------------------------------------------------------------
A---7-7-7-7-8---7-7-8-8---7-7-7-7-8---5-5-10-10--(play 2x)---
E---7-7-7-7-8---7-7-8-8---7-7-7-7-8---5-5-10-10--------------

E------------------------------------------------------------
B------------------------------------------------------------
G---4-4-4-4-2-2-2-2-4-4-4-4-2-2-2-2-5-5-5-5---(play 2x)------
D---4-4-4-4-2-2-2-2-4-4-4-4-2-2-2-2-5-5-5-5------------------
A------------------------------------------------------------
E------------------------------------------------------------

(Verse)"If I could be everything you want..."
[ Tab from: http://www.guitartabs.cc/tabs/p/pod/find_my_way_tab_ver_2.html ]
(Prechorus)"I need you more than I ever had..."

(Chorus)

Bridge: "I'll be there; I'll be there..." (this is the really tough part,
and I'm not 100% sure if its right, it just sounds right to me.)

E------------------------------------------------------------
B------------------------------------------------------------
G--------------------------------------------------(play 2x)-
D------------------------------------------------------------
A---2-2-2-2-0---2------2-------3-3-3-3-0------3-3-3-3--------
E---2-2-2-2-0-----3-0----3-0---3-3-3-3-0--0-3----------------

E------------------------------------------------------------
B------------------------------------------------------------
G------------------------------------------------------------
D------------------------------------------------------------
A---3---0---2-2-3-3-3-3-------2------2---2-2-2-2--(play 2x)--
E-----------2-2-3-3-3-3---0-3----0-3-----2-2-2-2-------------

E------------------------------------------------------------
B------------------------------------------------------------
G---4-4-4-4-4-2--4-4-4-4-4-2--4-4-4-4-4-2--4-4-4-4-4-5-5-5-5-
D---4-4-4-4-4-2--4-4-4-4-4-2--4-4-4-4-4-2--4-4-4-4-4-5-5-5-5-
A------------------------------------------------------------
E------------------------------------------------------------

(Chorus)

Ending: "I'll be there; I'll be there..."
E------------------------------------------------------------
B------------------------------------------------------------
G--------------------------------------------------(play 2x)-
D------------------------------------------------------------
A---2-2-2-2-0---2------2-------3-3-3-3-0------3-3-3-3--------
E---2-2-2-2-0-----3-0----3-0---3-3-3-3-0--0-3----------------

"I'll find my way to you..." 
E----------12------------------12--12-13-12-12--(slows down)-
B---9------12---9---12----------------------------(fades)----
G------9-----------------------------------------------------
D------------------------------------------------------------
A------------------------------------------------------------
E------------------------------------------------------------
Comments