Pod - Find My Way Chords & Tabs

 

Find My Way Chords & Tabs

Pod Chords & Tabs

Version: 1 Type: Bass Tab 0 ratings
1 star 2 stars 3 stars 4 stars 5 stars
comments

Find My Way Bass Tab

Band- POD
Song- Find My Way

Chorus
G -----------------------------|
D -----------------------------| 2x
A -55555--5555-------------11--|
D -------8-----88-55555-33-----|

Verse    2x                        2x
G ---------------------------|-------------------------|
D ---------------------------|-------------------------|
A ----11r---33r--------------|-----11r---33r-----7545--|
D -00r----------55r----------|-00r-----------55r-------|

Chorus 2x
[ Tab from: http://www.guitartabs.cc/tabs/p/pod/find_my_way_btab.html ]
After Chorus
G -----------------------|
D -----------------------|
A --------------------11-| 2x
D -0000-/4000-0000-33----|

verse
Chorus 2x
After Chorus 2x

Breakdown I
G --------------------------------|
D --------------------------------|
A --------------------------------| 2x
D -7777-3-0--30308888-33-555-888--|

Breakdown II
G ---------------------------------|
D ---------------------------------|
A --------------111-----------000--| 2x
D -888555-3-3-3-----03030-303------|

Rest for a couple of seconds

Chorus 2x
After Chorus 2x
Breakdown I 1x
Comments