Pod - Execute The Sounds Chords & Tabs

 

Execute The Sounds Chords & Tabs

Pod Chords & Tabs

Version: 2 Type: Tab 0 ratings
1 star 2 stars 3 stars 4 stars 5 stars
comments

Execute The Sounds Tab

POD - Execute the Sounds

INTRO
E--------------------------------------------------------------|
B--------------------------------------------------------------|
G--------------------------------------------------------------|
D-----3----3---3----3---3-----3---3----3-----------------------|
A---3--0-3---3--0-3---4---1-4---4--1-4-------------------------| REPEAT
D--------------------------------------------------------------|
verse is the same like intro
[ Tab from: http://www.guitartabs.cc/tabs/p/pod/execute_the_sounds_tab_ver_2.html ]
CHORUS
E--------------------------------------------------------------------|
B--------------------------------------------------------------------|
G--------------------------------------------------------------------|
D----3-3-3-5--3-3-3-5--6-6-6-8-5-5-5-5-5-----------------------------|
A----3-3-3----3-3-3----6-6-6---5-5-5-5-5-----------------------------|
D----3-3-3----3-3-3----6-6-6---5-5-5-5-5-----------------------------|

BRIDGE
E------------------------------------------------------------------|
B------------------------------------------------------------------|
G------------------------------------------------------------------|
D---------------3-3--6-6-------------------------------------------|
A----3-4-3-1-3--3-3--6-6---3-4-3-1-3---4-4-------------------------|
D---------------3-3--6-6-------------------4-4---------------------| REPEAT

OUTRO IS THE SAME LIKE INTRO.
Comments