Pod - Execute The Sounds Chords & Tabs

 

Execute The Sounds Chords & Tabs

Pod Chords & Tabs

Version: 1 Type: Bass Tab 0 ratings
1 star 2 stars 3 stars 4 stars 5 stars
comments

Execute The Sounds Bass Tab

-------------------------------------------------------------------------------
			     Execute The Sounds - P.O.D.
-------------------------------------------------------------------------------

Tabbed By : jman04
e-mail:  jman107@earthlink.net

Hopefully this revision of my original tab is a little easier to understand...

Tuning: dropped D

verses
G|----------------------------------|
D|----------------------------------|
A|----------------------------------|
D|-333-0-344-333-0-344--------------|  x3

[ Tab from: http://www.guitartabs.cc/tabs/p/pod/execute_the_sounds_btab.html ]
chorus
G|----------------------------------|
D|----------------------------------|
A|-------3-----3-----6--------------|
d|--33----33---66---4444------------|  x3

G|----------------------------------|
D|----------------------------------|
A|-------3-----3-----6--------------|
D|--33---33----66---44444444--------|


transition
G|----------------------------------|
D|----------------------------------|
A|---34313------34313-4-------------|
D|------------3-6-------------4-----|   x4

Outro
G|----------------------------------|
D|----------------------------------|
A|----------------------------------|
D|--3--4---3---0-4---3--------------|

SONG STRUCTURE:
verse 
chorus
verse
chorus
transition
chorus
outro
Comments