Pod - Coming Back Chords & Tabs

 

Coming Back Chords & Tabs

Pod Chords & Tabs

Version: 1 Type: Bass Tab 0 ratings
1 star 2 stars 3 stars 4 stars 5 stars
comments

Coming Back Bass Tab

Band- Pod
Song- Coming Back

h = hammer on
p = pull off

G:|---6---6---------------|
D:|-----------------------|
A:|--------------11-9-7-6-|
C#|0-0--0-0--0-0---0-0-0-0|

G:|---6---6--------------------------|
D:|----------------------------------|
A:|-------------11----9----7----6----|
C#|0-0--0-0--0-0---0-0--0-0--0-0--0-0|

G:|----------------|
D:|----------------|
A:|----------------|
C#|0--0-3/5-6-5h6-3|

G:|----------|
D:|----------|
A:|----------|
C#|5--5-2-8-7|

G:|--------|
D:|--------|
A:|-----7p2|
C#|0--0----|
[ Tab from: http://www.guitartabs.cc/tabs/p/pod/coming_back_btab.html ]
G:|-----------------------------------------|
D:|-----------------------------------------|
A:|----------------7-------------------0h2h4|
C#|0--0-0-5-3--3-3---0--0-0-5-3--3--3-3-----|

G:|------------------4h6p4---------|
D:|------------------------6-------|
A:|--------------------------------|
C#|0--0-0-5-3--3-3-3------------7-5|

G:|--------------|
D:|--------------|
A:|--------------|
C#|0--0-0-3/5-6p5|

G:|------------|
D:|------------|
A:|------------|
C#|0--0-0-6-5-3|

G:|----------|
D:|----------|
A:|----------|
C#|5--5-2-8-7|

G:|--------|
D:|--------|
A:|-----7p2|
C#|0--0----|

G:|----------|
D:|----------|
A:|----------|
C#|5--5-2-8-7|
Comments