Pod - Celestial Chords & Tabs

 

Celestial Chords & Tabs

Pod Chords & Tabs

Version: 2 Type: Bass Tab 0 ratings
1 star 2 stars 3 stars 4 stars 5 stars
comments

Celestial Bass Tab

Celestial - P.O.D.

(4/4)(121 bpm)
5-string in standard tuning

|-R-| - rest for one measure
\ - slide down
r - eighth rest

Intro:
|---|---|---|----------------|
|---|---|---|----------------|
|---|---|---|----------------|
|---|---|---|----------------|
|-R-|-R-|-R-|R---R---9-\-----|

Riff 1: (x2)(0:08)
|----------------|----------------|----------------|----------------|
|----------------|----------------|----------------|----------------|
|----------3-5-*-|*-*-*-*-*-*-5-\-|----------------|----------------|
|--1r-1-3r-------|----------------|--------------3-|----------------|
|1---------------|----------------|4-*-*-*-*-*-*---|4-*-*-*-6---4---|

|----------------|----------------|----------------|----------------|
|----------------|----------------|----------------|----------------|
|----------3-5-*-|*-*-*-*-*-*-5-\-|----------------|----------------|
|--1--1-3--------|----------------|--------------3-|------4-------3-|
|1---------------|----------------|4-*-*-*-*-*-*---|4--44---4--44---|
[ Tab from: http://www.guitartabs.cc/tabs/p/pod/celestial_btab_ver_2.html ]
Riff 2: (0:40)
|----------------|----------------|----------------|----------------|
|----------------|----------------|----------------|----------------|
|----------3-5-*-|*-*-*-*-*-*-5-\-|----------------|----------------|
|--1--1-3--------|----------------|--------------3-|----------------|
|1---------------|----------------|4-*-*-*-*-*-*---|4-*-*-*-6---4---|

|----------------|----------------|----------------|----------------|
|----------------|----------------|----------------|----------------|
|----------3-5-*-|*-*-*-*-*-*-5-\-|----------------|----------------|
|--1--1-3--------|----------------|----------------|----------------|
|1---------------|----------------|4-*-*-*-*-*-*-*-|*-*-*-*-*-*-*-*-|

|----------------|----------------|----------------|----------------|
|----------------|----------------|----------------|----------------|
|----------3-5-*-|*-*-*-*-*-*-5-\-|----------------|----------------|
|--1--1-3--------|----------------|--------------3-|----------------|
|1---------------|----------------|4-*-*-*-*-*-*---|4-*-*-*-6---4---|
(hold till end)
|----------------|
|----------------|
|----------------|
|----------------|
|1-*-*-*-*-*-*-*-|

Rest till end
Comments