Pod - Boom Chords & Tabs

 

Boom Chords & Tabs

Pod Chords & Tabs

Version: 2 Type: Bass Tab 0 ratings
1 star 2 stars 3 stars 4 stars 5 stars
comments

Boom Bass Tab

   
note: this tab represents the authors inturpretation of this song and
should only be used for private study

=====================================================================
Artist: P.o.d
Title: Boom
Album: Satellite
Year 2002
=====================================================================
Tuning: E,A,D,G
If possible DiStOrTioN
=====================================================================

Intro: Guitar for 4 bars then:

G|---------------------------------------------------------------------------|
D|---------------------------------------------------------------------------|
A|---------------------------------------------------------------------------|
E|-22222-00-22222-00-5555555-7777777-----------------------------------------|

Verse: repeat till pre-chorus
G|---------------------------------------------------------------------------|
D|---------------------------------------------------------------------------|
A|---------------------------------------------------------------------------|
E|-22222-00-22222-00-5555555-7777777-----------------------------------------|

Pre-chorus:
G|---------------------------------------------------------------------------|
D|---------------------------------------------------------------------------|
A|---------------------------------------------------------------------------|
E|2~-----------------2~------------------------------------------------------|
[ Tab from: http://www.guitartabs.cc/tabs/p/pod/boom_btab_ver_2.html ]
Chorus:
G|---------------------------------------------------------------------------|
D|---------------------------------------------------------------------------|
A|---------------------------------------------------------------------------|
E|-2/14----2/14----5555555-7777777-------------------------------------------|

Bridge/solo:
G|---------------------------------------------------------------------------|
D|---------------------------------------------------------------------------|
A|---------------------------------------------------------------------------|
E|-22222-00-22222-00-5555555-7777777-----------------------------------------|

Final Chorus:
G|---------------------------------------------------------------------------|
D|---------------------------------------------------------------------------|
A|---------------------------------------------------------------------------|
E|-2-------2-------5555555-7777777-------------------------------------------|

the order is quite easy, just listen to the track
it is bettr to use a plectrum to this song to get he back and forth rhythm of
this song (speaking as a finger player). if you insist on using fingers, either
play quavers on the verses and bridge/solo, or use heaps of distortion. 
happy playing!!
+++fran el man+++

| /  slide up
| \  slide down
| h  hammer-on
| p  pull-off
| ~  vibrato
| +  harmonic
| x  Mute note

(BTW: GOOD LUCK TO BECKY B ON HER BASS PLAYIN!)
===============================================================================
Comments