Pod - Boom Chords & Tabs

 

Boom Chords & Tabs

Pod Chords & Tabs

Version: 1 Type: Bass Tab 0 ratings
1 star 2 stars 3 stars 4 stars 5 stars
comments

Boom Bass Tab

   
artist: P.O.D.
song: boom  (bass tab)
album: satellite
tabbed by: josh (wuvfan13@aol.com)

note: this is a 4-string bass version. detune your E string to
D (drop-D tuning)

intro/verse
G------------------------------------------------------------
D------------------------------------------------------------
A------------------------------------------------------------
D-2-2-0-0-2-2-0-0-5-5-5-5-7-7-7-7----------------------------
[ Tab from: http://www.guitartabs.cc/tabs/p/pod/boom_btab.html ]
chorus
G------------------------------------------------------------
D------------------------------------------------------------
A--------5----------5----------------------------------------
D-2-2-------2-2-------7-7-7-0----7-7-7-0---------------------

bridge
G------------------------------------------------------------
D------------------------------------------------------------
A-------2-------0--------------------------------------------
D-0-2----0-2-------------------------------------------------
Comments