Pod - Asthma Chords & Tabs

 

Asthma Chords & Tabs

Pod Chords & Tabs

Version: 3 Type: Tab 0 ratings
1 star 2 stars 3 stars 4 stars 5 stars
comments

Asthma Tab

Band-POD
Song- Asthma

m-palm muted
h-hammer
\\-slide down
/-slide up

Verse 1 (clean)
------------------------------------------------------------|
------------------------------------------------------------|
-----------------------------------0------0-------0------0--|
-------7h8-----7h8--7-7h8-----------------------------------|
-----0--------0------------------3------3-------5------5----|
---0--------0------------------3------3-------5------5------|

Verse 2 (clean)
---------------------------------------------------------------------|
---------------------------------------------------------------------|
-----------------------------------------0------0-------0------0-----|
-------7h8-----7h8--12\\7/10\\5--------------------------------------|
-----0--------0------------------------3------3-------5------5-------|
---0--------0------------------------3------3-------5------5---------|

Verse 1 (clean)
------------------------------------------------------------|
------------------------------------------------------------|
-----------------------------------0------0-------0------0--|
-------7h8-----7h8--7-7h8-----------------------------------|
-----0--------0------------------3------3-------5------5----|
---0--------0------------------3------3-------5------5------|

Verse 2 (clean)
------------------------------------------------------------------|
------------------------------------------------------------------|
-----------------------------------------0------0-----------------|
-------7h8-----7h8--12\\7/10\\5-----------------------------------|
-----0--------0------------------------3------3-----555---555-----|
---0--------0------------------------3------3-------555---555-----|

Chorus (distortion)
------------------------------------|
------------------------------------|
------------------------------------|
88888888-88888888-00000000-00000000-|
88888888-99999999-88888888-99999999-|
88888888-88888888-00000000-00000000-| x2

---------------------------------------------|
---------------------------------------------|
---------------------------------------------|
8888-8888-8888-8888-0000-7777-0000-10101010--|
8888------8888------0000------0000-----------|
8888------8888------0000------0000-----------| x2
mmmm      mmmm      mmmm      mmmm
[ Tab from: http://www.guitartabs.cc/tabs/p/pod/asthma_tab_ver_3.html ]
Verse 1 (clean)
------------------------------------------------------------|
------------------------------------------------------------|
-----------------------------------0------0-------0------0--|
-------7h8-----7h8--7-7h8-----------------------------------|
-----0--------0------------------3------3-------5------5----|
---0--------0------------------3------3-------5------5------| x3

-----------------------------------------------------------|
-----------------------------------------------------------|
-----------------------------------0------0----------------|
-------7h8-----7h8--7-7h8----------------------------------|
-----0--------0------------------3------3-----555----555---|
---0--------0------------------3------3-------555----555---|

Chorus (distortion)
------------------------------------|
------------------------------------|
------------------------------------|
88888888-88888888-00000000-00000000-|
88888888-99999999-88888888-99999999-|
88888888-88888888-00000000-00000000-| x2

---------------------------------------------|
---------------------------------------------|
---------------------------------------------|
8888-8888-8888-8888-0000-7777-0000-10101010--|
8888------8888------0000------0000-----------|
8888------8888------0000------0000-----------| x2
mmmm      mmmm      mmmm      mmmm

Bridge (distortion)
------------------  ------------------------|
------------------  ------------------------|
------------------  ------------------------|
0--10--7--5-----7-  0--10--12--10--7--5--8--|
0--10--7--5-----5-  0--10--12--10--7--5--8--|
0--10--7--5--00---  0--10--12--10--7--5--8--| x2

Chorus (distortion)
------------------------------------|
------------------------------------|
------------------------------------|
88888888-88888888-00000000-00000000-|
88888888-99999999-88888888-99999999-|
88888888-88888888-00000000-00000000-| x4

---------------------------------------------|
---------------------------------------------|
---------------------------------------------|
8888-8888-8888-8888-0000-7777-0000-10101010--|
8888------8888------0000------0000-----------|
8888------8888------0000------0000-----------| x2
mmmm      mmmm      mmmm      mmmm

Verse 1 (clean)
------------------------------------------------------------|
------------------------------------------------------------|
-----------------------------------0------0-------0------0--|
-------7h8-----7h8--7-7h8-----------------------------------|
-----0--------0------------------3------3-------5------5----|
---0--------0------------------3------3-------5------5------| x3
Comments