Pod - Asthma Chords & Tabs

 

Asthma Chords & Tabs

Pod Chords & Tabs

Version: 2 Type: Tab 0 ratings
1 star 2 stars 3 stars 4 stars 5 stars
comments

Asthma Tab

   
Tuning:CGCFAd
Intro/ Verses
d|--------------------------------------------------------------------------|
A|--------------------------------------------------------------------------|
F|--------------------------------------------------------------------------|
C|-------7h87----7h8h7/5h0----------5-------5---------7h8h7--7/12/7/10/5h0--|
G|-----0--------------------------3-------5---------0-----------------------|
C|---0--------------------------3-------5--------0--------------------------|
[ Tab from: http://www.guitartabs.cc/tabs/p/pod/asthma_tab_ver_2.html ]
          Play twice       Chorus
|-----------|---------------------------------------------------------------------|
|-----------|---------------------------------------------------------------------|
|-----------|-------------------x2------------------------------------------------|
|---5------5|---------------------------|--------8888--------88888----------------|
|-3------5--|-------88888877777778101010|88888888----88888------------------------|
|3-----5----|-------88888888800000000---|88888888----88888------------------------|

|--------------------------------------|-------------------------------------|
|-------------------------------------|--------------------------------------|
|------------------------------------|---------------------------------------|
|----------77777-------10101010-----|----------------------------------------|
|--000000--------------------------|-----------------------------------------|
|--000000--------000000-----------|------------------------------------------|
| /  slide up
| \  slide down
| h  hammer-on
| p  pull-off
| ~  vibrato
| +  harmonic
| x  Mute note
===============================================================================
Comments