Pod - Anything Right Chords & Tabs

 

Anything Right Chords & Tabs

Pod Chords & Tabs

Version: 2 Type: Tab 0 ratings
1 star 2 stars 3 stars 4 stars 5 stars
comments

Anything Right Tab

Payable on Death - Anything right.

Transcribed by Steven (sickle) Waddington


Intro/Chorus

|----------------------------|-------------------|----------------------|
|----------------------------|-------------------|----------------------|
|----------------------------|-------------------|----------------------|
|-2-2-2-0-2------2------0----|-0-2-2-2-0-2-4-0---|-2---4--5--0----------|
|-2-2-2-0-2--------2------0--|-0-2-2-2-0-2-4-0---|-2---4--5--0----------|
|-2-2-2-0-2---2----4--0---2--|-0-2-2-2-0-2-4-0---|-2---4--5--0----------|

Violin bit.

|---------------------------------------------------------------|
|----10----8----7---------10-----8------------------------------|
|--------------------7---------------7----9---------------------|
|-----7----5----4----------7-----5------------------------------|
|--------------------5---------------5----7---------------------|
|---------------------------------------------------------------|

Verse
[ Tab from: http://www.guitartabs.cc/tabs/p/pod/anything_right_tab_ver_2.html ]
|--------------------------------------------------------------------------------------|
|--------------------------------------------------------------------------------------|
|--------------------------------------------------------------------------------------|
|-----5------5------5------4-----4---5p4-2h4-----4---5-4---2h4----0---12--12/14-14/16-|
|---5---5--5---5--5------0---0-5---5-----------5---5-----5-------0--0-----------------|
|-0---------------------0---------------------0-----------------0---------------------|


    repeat 1 time then play this ending--------->
|---------------------------------------------------|-----------------------------|
|---------------------------------------------------|-----------------------------|
|---------------------------------------------------|-----------------------------|
|--4------4-----5----4-----4---5--7---5---4--5--4-2-|----5--4----5---4---5---4----|
|---------------------------------------------------|-----------------------------|
|---------------------------------------------------|-----------------------------|


Heavy bit


|---------------------------------------------------------------------|
|---------------------------------------------------------------------|
|---------------------------------------------------------------------|
|-0-2--0-2--0-2--0-2--0-3-3-3-3-3-3-3-3-3-3-3-3-3-3-3-3---------------|
|-0-2--0-2--0-2--0-2--0-3-3-3-3-3-3-3-3-3-3-3-3-3-3-3-3---------------|
|-0-2--0-2--0-2--0-2--0-3-3-3-3-3-3-3-3-3-3-3-3-3-3-3-3---------------|
pm                      . . . . . . . . . . . . . . . .

end bit.

|----------------------|
|----------------------|
|----------------------|
|--2---4----5---2------|
|--2---4----5---2------|
|--2---4----5---2------|

Well what a kick-ass song that is
In my opinion best on the album
Well as usual the address is
s_waddo@yahoo.com you know the drill.
Comments