Pod - Alive Chords & Tabs

 

Alive Chords & Tabs

Pod Chords & Tabs

Version: 6 Type: Tab 0 ratings
1 star 2 stars 3 stars 4 stars 5 stars
comments

Alive Tab

This is the new song by POD, I just wanna say that this song rocks,
and this band rocks harder! here's the TAB!


intro/verse
E-------------------------------------------------------
B-------------------------------------------------------
G-------------------------------------------------------
D-2-2-2-2-2--3-3-3--5-5-5/-8-8-8-8-8--5-5-5--3-3-------- over and over
A-2-2-2-2-2--3-3-3--5-5-5/-8-8-8-8-8--5-5-5--3-3--------
E-0-0-0-0-0--1-1-1--3-3-3/-6-6-6-6-6--3-3-3--1-1--------


chorus
[ Tab from: http://www.guitartabs.cc/tabs/p/pod/alive_tab_ver_6.html ]
E-----------------
B-----------------
G-----------------
D-3----------------
A-3----------------
E-1----------------  a lot of tims   


E----------------------------------
B----------------------------------
G----------------------------------
D-3-3-3-3-3-3-3-3-3-3-3---2--------
A-3-3-3-3-3-3-3-3-3-3-3---2-------- x2
E-1-1-1-1-1-1-1-1-1-1-1---0--------
for the very first time

little riff 
E----------------
B----------------
G----------------
D-5-4-2-4-2-0h2--
A----------------
E----------------
this comes after "I can't deny you!"

My name is CRAIG , e mail me at craigstapp@excite.com for n e thing! 

Comments