Pod - Alive Chords & Tabs

 

Alive Chords & Tabs

Pod Chords & Tabs

Version: 3 Type: Tab 0 ratings
1 star 2 stars 3 stars 4 stars 5 stars
comments

Alive Tab

"Alive" - P.O.D.

I been sittin here in my dorm watchin trl on mtv and i seen POD play their new song. 
It got stuck in my head so I decided I was gonna make my first tab so here it is.
It is not perfect so please e-mail me any changes u can suggest.

INTRO & VERSE

1 ------------------------------------------------------------------------------
2 ------------------------------------------------------------------------------
3 ------------------------------------------------------------------------------
4 ----7-7-7-5-7-----------------------------------------------------------------
5 ----5-5-5-3-5----5-5-5-5-8-8-8-8-8-8-8----8-8-8-8-3---------------------------
6 -----------------3-3-3-3-6-6-6-6-6-6-6----6-6-6-6-1---------------------------

CHORUS

1 ------------------------------------------------------------------------------
2 ------------------------------------------------------------------------------
3 ------------------------------------------------------------------------------
4 ----3-3-3-3-3-3-3-3-3-3-3-3-3-3-7-7-7-7-7-7-7-7-7-7-7-7-7-7-------------------
5 ----1-1-1-1-1-1-1-1-1-1-1-1-1-1-5-5-5-5-5-5-5-5-5-5-5-5-5-5-------------------
6 ------------------------------------------------------------------------------
      I                 I feel so alive    for the very first 
[ Tab from: http://www.guitartabs.cc/tabs/p/pod/alive_tab_ver_3.html ]
1 ------------------------------------------------------------------------------
2 ------------------------------------------------------------------------------
3 ------------------------------------------------------------------------------
4 ----------------------------------------------------0-3-2-0-2 0---------------
5 ----3-3-3-3-3-3-3-3-3-3-3-3-3-3-x-3-3-3-3-3-3-3-----------------3-------------
6 ----1-1-1-1-1-1-1-1-1-1-1-1-1-1-x-1-1-1-1-1-1-1-------------------------------
      time                  I cant deny you           I feel so alive

1 ------------------------------------------------------------------------------
2 ------------------------------------------------------------------------------
3 ------------------------------------------------------------------------------
4 ----3-3-3-3-3-3-3-3-3-3-3-3-3-3-7-7-7-7-7-7-7-7-7-7-7-7-7-7-------------------
5 ----1-1-1-1-1-1-1-1-1-1-1-1-1-1-5-5-5-5-5-5-5-5-5-5-5-5-5-5-------------------
6 ------------------------------------------------------------------------------
      I                 I feel so alive    for the very first 

1 ------------------------------------------------------------------------------
2 ------------------------------------------------------------------------------
3 ------------------------------------------------------------------------------
4 ----------------------------------------------------0-3-2-0-2 0---------------
5 ----3-3-3-3-3-3-3-3-3-3-3-3-3-3-x-3-3-3-3-3-3-3-----------------3-------------
6 ----1-1-1-1-1-1-1-1-1-1-1-1-1-1-x-1-1-1-1-1-1-1-------------------------------
      time                  And I think I can fly          

Alright thats all i got so e-mail me with any updates.  - JOsh Hudson


Comments